Log in

One click and you are in

Login with Facebook Login with Google

Why sign up and log in

Guitar Tabs Explorer
Talking Heads bass tabs for Warning sign

Bass tabs

TALKING HEADS

More Songs About Buildings and Food

Bass Tab

P= pop with pick
p= pull off

This is just the basic framework of the song
Play twice through
Listen to song for subtle and slight variations
Intro
                      P    P
G-------------------------------------------------------------------|
D-------------------------------------------------------------------|
A------10-----10----------9------9 --------7------7----------5----5-|
E----8------8---------8/7--- -7-------7/5-----5---------5/3---3-----|  X8


VERSE

G------------------------------------------------------|
D------------------------/-5--X--/-7-----/-5----X--/-7-|
A--------5-------5-----3---------------3---------------|
E---0--x----0--x---------------------------------------|  X4
  Warning sign


CHORUS

G-------------------------------------------------------------|
D---------------------------/-5----X--/-7-------/-5----X--/-7-|
A-----8p7-5-----8p7-5-----3-------------------3---------------|
E-6-X-------6-X-----------------------------------------------|  X2
 Warning sign of things to come


Bridge
  Rake tripple
G-------7-------------|
D-----x---------------|
A---5---------3-------|
E---------------------|  X4
  Hear my voice

Almost there ...

Sign in to get your own page with links to favourite songs and more. You are just one click away...

Login with Facebook Login with Google