Log in

One click and you are in

Login with Facebook Login with Google

Why sign up and log in

Guitar Tabs Explorer
Talking Heads bass tabs for Thank you for sending me an angel

Thank You For Sending Me An Angel bass tab by Talking Heads

Talking Heads bass tabs for Thank you for sending me an angel

Bass tabs

Intro:

G|-------------------|-------------------|-------------------|-------------------|
D|-5-5---5---5---5-5-|-5-5---5---5---5-5-|-5-5---5---5---5-5-|-5-5---5---5---5-5-|  2x
A|-------------------|-------------------|-------------------|-------------------|
E|-----3---3---3-----|-----3---3---3-----|-----3---3---3-----|-----3---3---3-----|

Chorus:

G|-------------------|-------------------|-------------------|-------------------|-------------------|
D|-------------------|-------------------|-------------------|-5-5---5---5---5-5-|-5-5---5---5---5-5-|  4x
A|-------------------|---0-1-2-3---------|-------------------|-------------------|-------------------|
E|-1-----------------|-------------------|---0-1-2-3---------|-----3---3---3-----|-----3---3---3-----|


Verse:

G|-------------------|-------------------|-------------------|-------------------|
D|-5-5---5---5---5-5-|-5-5---5---5---5-5-|-5-5---5---5---5-5-|-5-5---5---5---5-5-|  2x
A|-------------------|-------------------|-------------------|-------------------|
E|-----3---3---3-----|-----3---3---3-----|-----3---3---3-----|-----3---3---3-----|


Chorus:

G|-------------------|-------------------|-------------------|-------------------|-------------------|
D|-------------------|-------------------|-------------------|-5-5---5---5---5-5-|-5-5---5---5---5-5-|  4x
A|-------------------|---0-1-2-3---------|-------------------|-------------------|-------------------|
E|-1-----------------|-------------------|---0-1-2-3---------|-----3---3---3-----|-----3---3---3-----|



Verse/Instrumental:

G|-------------------|-------------------|-------------------|-------------------|
D|-5-5---5---5---5-5-|-5-5---5---5---5-5-|-5-5---5---5---5-5-|-5-5---5---5---5-5-|  2x
A|-------------------|-------------------|-------------------|-------------------|
E|-----3---3---3-----|-----3---3---3-----|-----3---3---3-----|-----3---3---3-----|


Chorus:

G|-------------------|-------------------|-------------------|-------------------|-------------------|
D|-------------------|-------------------|-------------------|-5-5---5---5---5-5-|-5-5---5---5---5-5-|  4x
A|-------------------|---0-1-2-3---------|-------------------|-------------------|-------------------|
E|-1-----------------|-------------------|---0-1-2-3---------|-----3---3---3-----|-----3---3---3-----|

Almost there ...

Sign in to get your own page with links to favourite songs and more. You are just one click away...

Login with Facebook Login with Google