Log in

One click and you are in

Login with Facebook Login with Google

Why sign up and log in

Guitar Tabs Explorer
Talking Heads bass tabs for Stay hungry

Bass tabs

Tuning: Standard (E A D G)

Difficulty: Novice


Intro:
G|-------------| x8
D|-7-7---------|
A|-----7--8--9-|
E|-------------|
Verse 1:
G|--------------|--------------|----------14\12--|----------14\12--| x2
D|----------14--|----------14--|-0--12--0--------|-0--12--0--------|
A|-0--12--0-----|-0--12--0-----|-----------------|-----------------|
E|--------------|--------------|-----------------|-----------------|

Interlude:
G|-------------| x3
D|-7-7---------|
A|-----7--8--9-|
E|-------------|

G|-------------|
D|-7-7----.--.-|
A|-----7--8--7-|
E|-------------|


Verse 2:
G|----4-------|--------------|----4-------|-------------|
D|-7-----7--4-|------------.-|-7-----7--4-|-----------.-|
A|------------|-7--4-7-----7-|------------|-7--4-7----7-|
E|------------|--------5-5---|------------|--------5----|

G|----4-------|--------------|----4-------|--------------|
D|-7-----7--4-|------------.-|-7-----7--4-|------------.-|
A|------------|-7--4-7-----7-|------------|-7--4-7-----8-|
E|------------|--------5-5---|------------|--------5-5---|

G|----5-------|--------------|----5-------|----------------|
D|-8-----8--5-|------------.-|-8-----8--5-|--------------.-|
A|------------|-8--5-8-----8-|------------|-8--5-8------10-|
E|------------|--------6-6---|------------|--------6-6/----|

G|-----7--------|-----------------|-----7--------|-----------------|
D|-10-----10--7-|---------------.-|-10-----10--7-|------------9/14-|
A|--------------|-10--7-10-----10-|--------------|-10--7-----------|
E|--------------|----------8-8----|--------------|--------10-------|

Solo:
G|----------12-14-\12|----------------|-------------14-\12|----------------|
D|-----14------------|-----14---12-14-|-----14---12-------|-----14---12-14-|
A|-------------------|----------------|-------------------|----------------|
E|-12----------------|-12-------------|-12----------------|-12-------------|

G|-------------------|----------------|-------------------|------------------| x4
D|-----14---12-14-\12|-----14---12-14-|-----14---12-14-\12|-------14---12-14-|
A|-------------------|----------------|-------------------|----14------------|
E|-12----------------|-12-------------|-12----------------|-12---------------|

G|-------------------|------------------|-------------------|------------------|
D|-----14---12-14-\12|-------14---12-14-|-----14---12-14-\12|-------14---12-14-|
A|-------------------|----14------------|-------------------|----14------------|
E|-12----------------|-12---------------|-12----------------|-12---------------|

G|-------------------|----------------|-------------------|------------------| x2
D|-----14---12-14-\12|-----14---12-14-|-----14---12-14-\12|-------14---12-14-|
A|-------------------|----------------|-------------------|----14------------|
E|-12----------------|-12-------------|-12----------------|-12---------------|


Outro:
G|-------------------|------------------|-------------------|------------------|
D|-----14---12-14-\12|-------14---12-14-|-----14---12-14-\12|-------14---12-14-|
A|-------------------|----14------------|-------------------|----14------------|
E|-12----------------|-12---------------|-12----------------|-12---------------|

G|-------------------|------------------|-------------------|------------------|
D|-----14---12-14-\12|-------14---12-14-|-----14---12-14-\12|----12-14---12-14-|
A|-------------------|----14------------|-------------------|-14---------------|
E|-12----------------|-12---------------|-12----------------|------------------|

G|-------------------|------------------| x3
D|-----14---12-14-\12|-------14---12-14-|
A|-------------------|----14------------|
E|-12----------------|-12---------------|


************************************

| / Slide up
| \ Slide down
| . Staccato

************************************

Almost there ...

Sign in to get your own page with links to favourite songs and more. You are just one click away...

Login with Facebook Login with Google