Log in

One click and you are in

Login with Facebook Login with Google

Why sign up and log in

Guitar Tabs Explorer
Talking Heads bass tabs for Paper

Bass tabs with lyrics

PAPER - Talking Heads
-----------------------------------------------------------------------------

Album:  Fear of Music (1979)
Bassist: Tina Weymouth

Tuning: Standard

4/4 Time


Intro

 G      D	  x8
G|----------------|
D|5---------------|
A|------------5---|
E|----------------|


Verse I

 D     C   D     C   Am        F        x2
G|----------------|----------------|----------------|----------------|
D|----------------|----------------|7---------------|----------------|
A|5---5---5-3---3-|5---5---5-3-----|--------------7-|8-------8---7---|
E|--5---5---------|--5---5---------|----------------|----------------|


Verse II

 C     Bb  x8
G|----------------|
D|----------------|
A|3---3---3--1----|
E|--3---3---------|


Verse III

 G
G|------------3---|------------5---|------------3---|------------5---|
D|3-5-3-5-3-5---5-|3-5-3-5-3-5---5-|3-5-3-5-3-5---5-|3-5-3-5-3-5---5-|
A|----------------|----------------|----------------|----------------|
E|----------------|----------------|----------------|----------------|

 D                 G
G|----------------|----------------|------------3---|------------5---|
D|----------------|----------------|3-5-3-5-3-5---5-|3-5-3-5-3-5---5-|
A|5-5-6-5-7-5-8-5-|5-5-6-5-7-5-8-5-|----------------|----------------|
E|----------------|----------------|----------------|----------------|


Structure:

Intro

Verse I

Verse II

Verse III

Intro

Verse I

Verse II

Verse III

Intro


Lyrics:


[Intro]


Verse I

Hold the paper up to the light
(some rays pass right through)
Expose yourself out there for a minute
(some rays pass right through)


Verse II

Take a little rest when the rays pass through
Take a little time off when the rays pass through
Go ahead and mix it up...Go ahead and tie it up
In a long distance telephone call


Verse III

Hold on to that paper
Hold on to that paper
Hold on because it's been taken care of
Hold on to that paper


Intro

See if you can fit it on the paper
See if you can get it on the paper
See if you can fit it on the paper
See if you can get it on the paper


Verse I

Had a love affair but it was only paper
(some rays they pass right through)
Had a lot of fun, could have been a lot better
(some rays they pass right through)


Verse II

Take a little consideration, take every combination
Take a few weeks off, make it tighter, tighter
But it was never, it was never written down
Still might be a chance that it might work out (if you)


Verse III

Hold on to that paper
Hold on to that paper
Hold on because it'll be taken care of
Hold on to that paper


Intro

Don't think I can fit it on the paper
Don't think I can get it on the paper
Go ahead and rip up, rip up the paper
Go ahead and tear up, tear up the paper


Tabbed By : colinmurphy77

Almost there ...

Sign in to get your own page with links to favourite songs and more. You are just one click away...

Login with Facebook Login with Google