Log in

One click and you are in

Login with Facebook Login with Google

Why sign up and log in

Guitar Tabs Explorer
Talking Heads bass tabs for Nothing but flowers

Nothing But Flowers bass tab by Talking Heads

Talking Heads bass tabs for Nothing but flowers

Bass tabs

Intro:
G|-----------------------|--------------------|
D|-----------------------|--------------------|
A|-3/8-------3-/11------3|-/13-------\--------|
E|-----------------------|--------------------|

G|------------------|--|
D|------------------|--|
A|------------------|--|
E|-5-5--------------|-5|

(00:08 ~ 00:14 - No Bass)

(00:15)
G|-------------------|------------------|--|
D|-------------------|------------------|--|
A|-15\--------------2|-/7---------------|--|
E|-------------------|------------------|-5|

(00:20 ~ 00:26 - No Bass)

(00:27)
G|------------------------|-----------------------| x4
D|------------------------|-------------3----2--0-|
A|-3--3-3------3--3-5---3-|-2--2-2----------------|
E|----------3-------------|----------3------------|


Verse 1:
G|------------------------|------------------------|
D|------------------------|------------------------|
A|-3--3-3------3--3--5--3-|-3--3-3------3--3--5--3-|
E|----------3-------------|----------3-------------|

G|------------------------|------------------------|
D|------------------------|------------------------|
A|-2--2-2------2--2--3--2-|-2--2-2------2--2--3--2-|
E|----------3-------------|----------3-------------|

G|------------------------|------------------------|
D|------------------------|------------------------|
A|-5--5-5---0--5--5--7--5-|-5--5-5---0--5--5--7--5-|
E|------------------------|------------------------|

G|------------------------|------------------------|
D|-5--5-5------5----------|-5--5-5---0--5--3--2--0-|
A|----------5-----5--0--5-|------------------------|
E|------------------------|------------------------|

G|------------------------|------------------------|
D|------------------------|------------------------|
A|-3--3-3------3--3--5--3-|-3--3-3------3--3--5--3-|
E|----------3-------------|----------3-------------|

G|------------------------|------------------------|
D|------------------------|------------------------|
A|-2--2-2------2--2--3--2-|-2--2-2------2--2--3--2-|
E|----------3-------------|----------3-------------|

G|------------------------|------------------------|
D|------------------------|------------------------|
A|-5--5-5---0--5--5--7--5-|-5--5-5---0--5--5--7--5-|
E|------------------------|------------------------|

G|------------------------|------------------------|
D|-5--5-5------5----------|-5--5-5---0--5--3--2--0-|
A|----------5-----5--0--5-|------------------------|
E|------------------------|------------------------|


Pre-Chorus:
G|------------------------|-----------------------|
D|------------------------|------------------2----|
A|-2--2-2------2--2--3--2-|-2--2-2------2---------|
E|----------3-------------|----------3----------0-|

G|------------------------|-----------------------|
D|------------------------|------------------2----|
A|-2--2-2------2--2--3--2-|-2--2-2------2-------2-|
E|----------3-------------|----------3------------|

G|------------------------|-----------------------|
D|------------------------|------------------2----|
A|-3--3-3------3--3--5--3-|-2--2-2------2-------2-|
E|----------3-------------|----------3------------|

G|------------------------|------------------------|
D|-3--3-3------3--3--5--3-|-5--5-5---0--5--3--2--0-|
A|----------3-------------|------------------------|
E|------------------------|------------------------|


Chorus:
G|------------------------|-----------------------| x4
D|------------------------|-------------3----2--0-|
A|-3--3-3------3--3--5--3-|-2--2-2----------------|
E|----------3-------------|----------3------------|

G|------------------------|------------------------| x4
D|------------------------|-7--7-7---5-------4-----|
A|-5--5-5---0--5--5--7--5-|-------------7--7-----7-|
E|------------------------|------------------------|


Interlude:
G|------------------------|-----------------------| x2
D|------------------------|-------------3----2--0-|
A|-3--3-3------3--3--5--3-|-2--2-2----------------|
E|----------3-------------|----------3------------|


Verse 2:
G|------------------------|------------------------|
D|------------------------|------------------------|
A|-3--3-3------3--3-5---3-|-3--3-3------3--3-5---3-|
E|----------3-------------|----------3-------------|

G|------------------------|------------------------|
D|------------------------|------------------------|
A|-2--2-2------2--2-3---2-|-2--2-2------2--2-3---2-|
E|----------3-------------|----------3-------------|

G|------------------------|------------------------|
D|------------------------|------------------------|
A|-5--5-5---0--5--5-7---5-|-5--5-5---0--5--5-7---5-|
E|------------------------|------------------------|

G|------------------------|------------------------|
D|-5--5-5------5----------|-5--5-5---0--5--3--2--0-|
A|----------5-----5--0--5-|------------------------|
E|------------------------|------------------------|

G|------------------------|------------------------|
D|------------------------|------------------------|
A|-3--3-3------3--3-5---3-|-3--3-3------3--3-5---3-|
E|----------3-------------|----------3-------------|

G|------------------------|------------------------|
D|------------------------|------------------------|
A|-2--2-2------2--2-3---2-|-2--2-2------2--2-3---2-|
E|----------3-------------|----------3-------------|

G|------------------------|------------------------|
D|------------------------|------------------------|
A|-5--5-5---0--5--5-7---5-|-5--5-5---0--5--5-7---5-|
E|------------------------|------------------------|

G|------------------------|------------------------|
D|-5--5-5------5----------|-5--5-5---0--5--3--2--0-|
A|----------5-----5--0--5-|------------------------|
E|------------------------|------------------------|


Pre-Chorus Part:
G|------------------------|-----------------------|
D|------------------------|------------------2----|
A|-2--2-2------2--2--3--2-|-2--2-2------2-------2-|
E|----------3-------------|----------3------------|

G|------------------------|-----------------------|
D|------------------------|------------------2----|
A|-2--2-2------2--2--3--2-|-2--2-2------2-------2-|
E|----------3-------------|----------3------------|

G|------------------------|-----------------------|
D|------------------------|------------------2----|
A|-3--3-3------3--3--5--3-|-2--2-2------2-------2-|
E|----------3-------------|----------3------------|

G|------------------------|------------------------|
D|-3--3-3------3----------|-5--5-5---0--5--3--2--0-|
A|----------3-----3--0--3-|------------------------|
E|------------------------|------------------------|


Bridge:
G|------------------------|------------------------| x2
D|------------------------|------------------------|
A|-5--5-5---0--5--5--7--5-|------------------------|
E|------------------------|-5--5-5---0--5--5--6--5-|

G|------------------------|------------------------|
D|-3--3-3------3--3--5--3-|------------------------|
A|----------3-------------|-3--3-3------3--3--5--3-|
E|------------------------|----------3-------------|

G|------------------------|-----------------|
D|-3--3-3------3--3--5--3-|-----------------|
A|----------3-------------|-3---------------|
E|------------------------|-----------------|


Chorus:
G|------------------------|-----------------------| x4
D|------------------------|-------------3----2--0-|
A|-3--3-3------3--3-5---3-|-2--2-2----------------|
E|----------3-------------|----------3------------|

G|------------------------|------------------------| x4
D|------------------------|-7--7-7---5-------4-----|
A|-5--5-5---0--5--5-7---5-|-------------7--7-----7-|
E|------------------------|------------------------|

G|----------|--|
D|----------|--|
A|-5\-------|--|
E|----------|-5|

(03:50 ~ 04:03 - No Bass)


Solo:
(04:04)
G|-----------------------------------|-----------------------------------|
D|-------------------7---------------|-----------------------------------|
A|-5---------------------------------|-5---------------------------------|
E|---------3------5------------------|---------3------3--5---------------|

G|---------------------------------------|----------------------------------------|
D|---------------------------------------|----------------------------------------|
A|-5-------5--7-------5------------------|-5-------5--7-------7-----------------7-|
E|-----------------------5---------------|-----------------------5----------------|

G|------------------------|------------------------| x6
D|------------------------|-7--7-7---5-------4-----|
A|-5--5-5---0--7--7-7---0-|-------------7--7-----7-|
E|------------------------|------------------------|

G|---------------------------------------|-----------------------*---------------|
D|---------------------------------------|-----------------------7---------------|
A|-5--5-5-----7-------7------------------|-5-------5--7-------7------------------|
E|-----------------------5---------------|---------------------------------------|


Interlude:
G|------------------------|-------------------------| x2
D|------------------------|-7--7-7---5---------4----|
A|-5--5-5---0--7--7-7---0-|-------------7--7-7----7-|
E|------------------------|-------------------------|


Outro:
G|------------------------|-------------------------| x7
D|------------------------|-7--7-7---5---------4----|
A|-5--5-5---0--7--7-7---0-|-------------7--7-7----7-|
E|------------------------|-------------------------|

G|--|
D|--|
A|-5|
E|--|

Almost there ...

Sign in to get your own page with links to favourite songs and more. You are just one click away...

Login with Facebook Login with Google