Log in

One click and you are in

Login with Facebook Login with Google

Why sign up and log in

Guitar Tabs Explorer
Talking Heads bass tabs for Found a job stop making sense

Found A Job Stop Making Sense bass tab by Talking Heads

Talking Heads bass tabs for Found a job stop making sense

Bass tabs

-------------------------------------------------------------------------------
               Found a Job - Talking Heads
-------------------------------------------------------------------------------
Tabbed by: Aidan Peel
E-mail: aidan.zpeel@gmail.com
Tuning:Standard


Verse: 0:00
G|-----2----------------2--|
D|-------------------------|
A|-0-0---0--0-2-4-554-2----| X2
E|-------------------------|

G|-------------------------------------|
D|-00-4-5-7-00-4-5-7-00-4-5-7-9p7-9p7--|
A|-------------------------------------|
E|-------------------------------------|


Chorus: 0:51
G|----------------------------|
D|----------------------------|
A|-7-7-10-10-5----------------| X4 (Not 100% sure about this but this is how i play it)
E|--------------3-3-3-3-3-3-3-|

G|---------------9-|-----------------|-------------|-----------|
D|-----------7-9---|-----------------|-------------|-----------|
A|-7-7-10-10-------|-7-7-10-10-7-7-9-|-2-2-5-5-2-5-|-2-2-5-5-7-|
E|-----------------|-----------------|-------------|-----------|

Repeat:

Verse: 1:21

Chorus: 1:48

Verse: 2:20

Chorus: 2:45


Verse/Outro: 3:16
G|-----2----------------2--|
D|-------------------------|
A|-0-0---0--0-2-4-554-2----| X2
E|-------------------------|

G|------------------------------------6-|
D|-00-4-5-7-00-4-5-7-00-4-5-7-9p7-9p7---|
A|--------------------------------------|
E|--------------------------------------|

G|---2----------------2--|
D|-----------------------|
A|-0---0--0-2-4-554-2----| X2
E|-----------------------|

Then repeat until end


| / slide up
| \ slide down
| h hammer-on
| p pull-off
| ~ vibrato
| + harmonic
| x Mute note

Almost there ...

Sign in to get your own page with links to favourite songs and more. You are just one click away...

Login with Facebook Login with Google