Log in

One click and you are in

Login with Facebook Login with Google

Why sign up and log in

Guitar Tabs Explorer
Talk Talk bass tabs for The rainbow

Bass tabs

As played by Paul Webb


Intro

48 Bars Rest
Intro 2

10 Bars Rest

G|-2-----2-5-------|-5-------7-------|-5-------2-------|-2-------2-------|
D|-----------------|-----------------|-----------------|---------0-------|
A|-0-----0-0-------|-0-------5-------|-0-------0-------|-0---------------|
E|-----------------|-----------------|-----------------|-----------------|
  Q.  E H     H    H     H    H     H    H

G|-2-------5-------|-------5/7-------|-2-------5-------|-5-------2-------|
D|-----------------|-------0---------|-----------------|---------0-------|
A|-0-------0-------|-0---------------|-0-------0-------|-0---------------|
E|-----------------|-----------------|-----------------|-----------------|
  H    H     Q.  E H     H    H     H    H

G|-------2-5-------|-5-------2-------|-------2-5-------|-5---------------|
D|-----------------|---------0-------|-----------------|-----------------|
A|-0-----0-0-------|-0---------------|-0-----0-0-------|-0-------0-------|
E|-----------------|-----------------|-----------------|-----------------|
  Q.  E H     H    H     Q.  E H     H    H

G|-----------------|-----------------|
D|-----------------|-----------------|
A|-----------------|-----------------|
E|-0---------------|-----------------|
  W         W

Verse 1

G|-5-------5-------|-5-------2-------|-5-------5-------|-5-------2-------|
D|-----------------|---------0-------|-----------------|---------0-------|
A|-0-------0-------|-0---------------|-0-------0-------|-0---------------|
E|-----------------|-----------------|-----------------|-----------------|
  H    H     H    H     H    H     H    H

G|-5-------5-------|-5-----5/7-------|-------2-5-------|-5-------2-------|
D|-----------------|-------0-0-------|-----------------|---------0-------|
A|-0-------0-------|-0---------------|-0-----0-0-------|-0---------------|
E|-----------------|-----------------|-----------------|-----------------|
  H    H     H    H     Q.  E H     H    H

G|-5-------5-------|-2-------5-------|-5-2---2-5-------|-----------------|
D|-----------------|-----------------|-----------------|-----------------|
A|-0-------0-------|-0-------0-------|-0-0---0-0-------|-----------------|
E|-----------------|-----------------|-----------------|-----------------|
  H    H     H    H     E Q  E H     W


Chorus 1

G|-----------------|-----------------|-----------------|-----------------|
D|-----------------|-----------------|-----------------|-----------------|
A|-----------------|-----------------|-----------------|-2-------2-------|
E|-2-------5---2---|-----0---0-------|-0-------0---0---|-----------------|
  H    Q  Q   Q  Q  H     H    Q  Q   H    H

Interlude

8 Bars Rest

G|-5-------5-------|-5-------7-------|-5-------5-------|-5-------2-------|
D|-----------------|-----------------|-----------------|---------0-------|
A|-0-------0-------|-0-------5-------|-0-------0-------|-0---------------|
E|-----------------|-----------------|-----------------|-----------------|
  H    H     H    H     H    H     H    H

G|-5-------5-------|-5-----5/7-------|-5-------5-------|-5-------2-------|
D|-----------------|-------0-0-------|-----------------|---------0-------|
A|-0-------0-------|-0---------------|-0-------0-------|-0---------------|
E|-----------------|-----------------|-----------------|-----------------|
  H    H     Q.  E H     H    H     H    H

G|-----------------|-----------------|
D|-----------------|-----------------|
A|-----------------|-----------------|
E|-0---------------|-----------------|
  W         W


Verse 2

G|-5-------5-------|-5-------2-------|-5-------5-------|-5-------2-------|
D|-----------------|---------0-------|-----------------|---------0-------|
A|-0-------0-------|-0---------------|-0-------0-------|-0---------------|
E|-----------------|-----------------|-----------------|-----------------|
  H    H     H    H     H    H     H    H

G|-5-------5-------|-5-----5/7-------|-5-------5-------|-5-------2-------|
D|-----------------|-------0-0-------|-----------------|---------0-------|
A|-0-------0-------|-0---------------|-0-------0-------|-0---------------|
E|-----------------|-----------------|-----------------|-----------------|
  H    H     Q.  E H     H    H     H    H

G|-5-------5-------|-2-------5-------|-2-------2-------|-----------------|
D|-----------------|---------0-------|-----------------|-----------------|
A|-0-------0-------|-0---------------|-0-------0-------|-0-------0-------|
E|-----------------|-----------------|-----------------|-----------------|
  H    H     H    H     H    H     H    H


Chorus 2

G|-----------------|-----------------|-----------------|-----------------|
D|-----------------|-----------------|-----------------|-----------------|
A|-----------------|-----------------|-----------------|-2-------2-------|
E|-2-------5---2---|-----0---0-------|-0-------0---0---|-----------------|
  H    Q  Q   Q  Q  H     H    Q  Q   H    H

Interlude 2

21 Bars Rest


Solo

G|-5-------5-------|-5-------2-------|-5-------5-------|-5-------2-------|
D|-----------------|---------0-------|-----------------|---------0-------|
A|-0-------0-------|-0---------------|-0-------0-------|-0---------------|
E|-----------------|-----------------|-----------------|-----------------|
  H    H     H    H     H    H     H    H

G|-5-------5-------|-5-----5/7-------|-2-------5-------|-5-------2-------|
D|-----------------|-------0-0-------|-----------------|---------0-------|
A|-0-------0-------|-0---------------|-0-------0-------|-0---------------|
E|-----------------|-----------------|-----------------|-----------------|
  H    H     Q.  E H     H    H     H    H

G|-2-------5-------|-5-------7-------|-5-------5-------|-5-------2-------|
D|-----------------|---------0-------|-----------------|---------0-------|
A|-0-------0-------|-0---------------|-0-------0-------|-0-----------0---|
E|-----------------|-----------------|-----------------|-----------------|
  H    H     H    H     H    H     H    Q  Q

G|-2-------5-------|-5-----5/7-------|-2-------5-------|-----------------|
D|-----------------|-------0-0-------|-----------------|-----------------|
A|-0-------0-------|-0---------------|-0-------0-------|-----------------|
E|-----------------|-----------------|-----------------|-----------------|
  H    H     Q.  E H     H    H     W


Chorus 3

G|-----------------|-----------------|-----------------|-----------------||
D|-----------------|-----------------|-----------------|-----------------||
A|-----------------|-----------------|-----------------|-2-------2-------||
E|-2-------5---2---|-----0---0-------|-0-------0---0---|-----------------||
  H    Q  Q   Q  Q  H     H    Q  Q   H    H


Key to rhythm notations:

W - Whole Note/Semi-Brieve
H - Half Note/Minim
Q - Quarter Note/Crotchet    Q. - Dotted Quarter Note
E - Eight Note/Quaver      E. - Dotted Eight Note

Almost there ...

Sign in to get your own page with links to favourite songs and more. You are just one click away...

Login with Facebook Login with Google