Log in

One click and you are in

Login with Facebook Login with Google

Why sign up and log in

Guitar Tabs Explorer
Talk Talk bass tabs for Its my life

Bass tabs

TALK TALK - It's My Life

Bass Tab by Paul (replica101@hotmail.com)

This bass player has been respnsible for some of the best and busiest
basslines ever! ...EVER!!

Sorry if this tab is written out a bit stupid (my first contribution....)
but all the music should be there, and I'm pretty sure it's all right.
Email me with any enquiries/comments/requests :)
G------
D------
A------
E------

Main verse:				   x5

	"Funny how I find myself....."
-----------------------------------------------
--------------------------6---6---6----8-------
6-4-6-----6-4-6-8---8-6-8-------8----8---------
------6----------------------------------------


Sixth time:

	               "One half won't do...."
------------------------------------------------------------------
--------------------------6---6---6--6----------------------------
6-4-6-----6-4-6-8---8-6-8-------8------7-5-7-7-7-5-------0-2------
------6--------------------------------------------7-0-2----------



Pre-Chorus:					x2

		   "I'll ask myself..."
--------------------------------------------------
------7-5---------------------3---------3-----5---
--5-7-----7-----2-3-3-5---3-5---5-3---3-----5-----
5-----------3-5---------1-----------1-----3-------



Chorus:		    X4

"It's my life..."
-------------------------
-------------------------
--3-5-3-5-5-----3---3-3--
5-----------3-5---5------


(After first chorus only)
-----------
-----------
-----------
1----------


Interlude:
				   x2
---------------------------------------
---------------3-----------------------
1---1----1---1--------1--------1----1--
--4---1----4------1-4---1--1-4----4----


Third time

------------------------------------------
---------------3--------2--2-0------------
1---1----1---1--------1--------2-----0-2--
--4---1----4------1-4------------0-2------


(Return to pre-chorus)

(Chorus)

(Repeat to fade)
ⓘ Bass guitar tab for 'Its My Life' by Talk Talk, a post-rock band formed in 1981 from London, England, UK. They retired in 1991. Talk Talk was known for their reflective rock/pop music.

Other versions of Its My Life

Its my life (Ver. 2)Bass tabs

Almost there ...

Sign in to get your own page with links to favourite songs and more. You are just one click away...

Login with Facebook Login with Google