Log in

One click and you are in

Login with Facebook Login with Google

Why sign up and log in

Guitar Tabs Explorer
Taking Back Sunday tabs for Makedamnsure

Tabs

MakeDamnSure

By: Taking Back Sunday

Standard Tuning

Tabbed By: Rebecca Rossi
Verse  x4
E--------------------------------------------------------
B--------------------------------------------------------
G--------------------------------------------------------
D----------3---------3----------3---------------------4--
A----4--4------2--2-------1--1------------4-----2--2-----
E-----------------------------------2--2-----------------


Thing @the beginning of the chorus     x2
E----13-14---13-14-x2--18-14--13-14--13-14-x2--21-14------
B--------------------------------------------------------
G--------------------------------------------------------
D--------------------------------------------------------
A--------------------------------------------------------
E--------------------------------------------------------


Chorus                  *  =same amount of strums as the previous chord

          A chord diagramF#F#                                                         C#*   Bb*     B*
E--------------------------------------------------------
B--------------------------------------------------------
G-------------------------------------- 6----3----4-------
D----4-4-4-4-4-4-4-4-4-4-4-4-4-4-4-4----6----3----4-------
A----4-4-4-4-4-4-4-4-4-4-4-4-4-4-4-4----4----1----2-------
E----2-2-2-2-2-2-2-2-2-2-2-2-2-2-2-2----------------------
Verse  x4
E--------------------------------------------------------
B--------------------------------------------------------
G--------------------------------------------------------
D----------3---------3----------3---------------------4--
A----4--4------2--2-------1--1------------4-----2--2-----
E-----------------------------------2--2-----------------


Thing @the beginning of the chorus     x2
E----13-14---13-14-x2--18-14--13-14--13-14-x2--21-14------
B--------------------------------------------------------
G--------------------------------------------------------
D--------------------------------------------------------
A--------------------------------------------------------
E--------------------------------------------------------


Chorus   x2

          A chord diagramF#F#                                                         C#*   Bb*     B*
E--------------------------------------------------------
B--------------------------------------------------------
G-------------------------------------- 6----3----4-------
D----4-4-4-4-4-4-4-4-4-4-4-4-4-4-4-4----6----3----4-------
A----4-4-4-4-4-4-4-4-4-4-4-4-4-4-4-4----4----1----2-------
E----2-2-2-2-2-2-2-2-2-2-2-2-2-2-2-2----------------------

        Play all below notes x2                                                       x2
         The second time.
E----2--2--2--2--------1--1--1--1-------------------------
B-----2--2--2--2---x6----2--2--2--2--x2-----2--2--2--2--x2
G--------------------------------------------4--4--4--4---
D--------------------------------------------------------
A--------------------------------------------------------
E--------------------------------------------------------
                                           [not so sure about this part so don’t take my word for it]

Chorus   x2

          A chord diagramF#F#                                                         C#*   Bb*     B*
E--------------------------------------------------------
B--------------------------------------------------------
G-------------------------------------- 6----3----4-------
D----4-4-4-4-4-4-4-4-4-4-4-4-4-4-4-4----6----3----4-------
A----4-4-4-4-4-4-4-4-4-4-4-4-4-4-4-4----4----1----2-------
E----2-2-2-2-2-2-2-2-2-2-2-2-2-2-2-2----------------------

^Here the chorus and the thing @ the beginning are playing @ the same time


End Riff
                                               Hold the end note till the end of the song
E----1-2---1-2--x2--6-2---1-2---1-2--1-2------------------
B--------------------------------------------------------
G--------------------------------------------------------
D--------------------------------------------------------
A--------------------------------------------------------
E--------------------------------------------------------
ⓘ Guitar tab for 'Makedamnsure' by Taking Back Sunday, an alternative rock band formed in 1999 from Long Island, New York, USA

Almost there ...

Sign in to get your own page with links to favourite songs and more. You are just one click away...

Login with Facebook Login with Google