Log in

One click and you are in

Login with Facebook Login with Google

Why sign up and log in

Guitar Tabs Explorer
Taking Back Sunday tabs for Call me in the morning

Call Me In The Morning tab - Taking Back Sunday

Taking Back Sunday tabs for Call me in the morning

Guitar tabs

Taking Back Sunday
Call Me In The Morning
Taking Back Sunday

1/2 Step Down

Guitar 1
Intro: Harmonics
E----------------------------------------|
B----------------------------------------|
G--5----5----5----5----5----5----5----5--|
D-5-5--5-5--5-5--5-5--5-5--5-5--5-5--5-5-|
A----------------------------------------|
E----------------------------------------|


Verse 1: Harmonics
E----------------------------------------|
B----------------------------------------|
G--5----5----5----5----5----5----5----5--|
D-5-5--5-5--5-5--5-5--5-5--5-5--5-5--5-5-|
A----------------------------------------|
E----------------------------------------|

E-------------------------------------------|
B--5----5----5----5--------------7----7---5-|
G-5-5--5-5--5-5--5-5---5----5---7-7--7-7--5-|
D---------------------5-5--5-5------------5-|
A-------------------------------------------|
E-------------------------------------------|


Chorus:
E-3333333333333333-3333333333333333-3333333333333333-3333333333333333-|
B-3333333333333333-3333333333333333-3333333333333333-3333333333333333-|
G-0000000000000000-0000000000000000-0000000000000000-0000000000000000-|
D-0000000000000000-2222222222222222-2222222222222222-0000000000000000-|
A-2222222222222222-2222222222222222-3333333333333333-2222222222222222-|
E-3333333333333333-0000000000000000------------------3333333333333333-|

Verse 2: Harmonics
E----------------------------------------|
B----------------------------------------|
G--5----5----5----5----5----5----5----5--|
D-5-5--5-5--5-5--5-5--5-5--5-5--5-5--5-5-|
A----------------------------------------|
E----------------------------------------|

E--------------------------------------------------|
B--5----5----5----5--------------7----7------------|
G-5-5--5-5--5-5--5-5---5----5---7-7--7-7---5----5--|
D---------------------5-5--5-5------------5-5--5-5-|
A--------------------------------------------------|
E--------------------------------------------------|


Break:
E-00000000-00000000-22222222----------|
B-11111111-11111111-33333333-00000000-|
G-22222222-00000000-22222222-00000000-|
D-22222222-22222222-00000000-22222222-|
A-00000000-33333333-00000000-22222222-|
E-------------------22222222-00000000-|

E-00000000-00000000-22222222----------0-|
B-11111111-11111111-33333333-00000000-1-|
G-22222222-00000000-22222222-00000000-0-|
D-22222222-22222222-00000000-22222222-2-|
A-00000000-33333333-00000000-22222222-3-|
E-------------------22222222-00000000---|


Verse 3: Harmonics
E------------------------------------------|
B----------------------------------------5-|
G--5----5----5----5----5----5----5----5--5-|
D-5-5--5-5--5-5--5-5--5-5--5-5--5-5--5-5-5-|
A------------------------------------------|
E------------------------------------------|


Outro: Harmonics
E----------------------------------------------------------------|
B------------------------------------------5----5----5---5-----5-|
G--5----5----5----5----5----5----5----5---5-5--5-5--5-5-----5--5-|
D-5-5--5-5--5-5--5-5--5-5--5-5--5-5--5-5-----------------------5-|
A----------------------------------------------------------------|
E----------------------------------------------------------------|



Guitar 2


Intro/Verse 1:
E--------------------------------------------------------|
B--------------------------------------------------------|
G--------------------------------------------------------|
D--------------------------------------------------------|
A-------3~-------3~-------3~-------3~-----3~------5~--3~-|
E-3~-------3~-------3~-------3~-------0~------3~---------|


Chorus:
E---------------------------------------------------------------------|
B---------------------------------------------------------------------|
G-----------------------------------5555555555555555------------------|
D-5555555555555555-2222222222222222-5555555555555555-5555555555555555-|
A-5555555555555555-2222222222222222-3333333333333333-5555555555555555-|
E-3333333333333333-0000000000000000------------------3333333333333333-|


Verse 2:
E--------------------------------------------------------|
B--------------------------------------------------------|
G--------------------------------------------------------|
D--------------------------------------------------------|
A-------3~-------3~-------3~-------3~-----3~------5~--3~-|
E-3~-------3~-------3~-------3~-------0~------3~---------|


Break:
E--10----10----12----12----8----8----7----7--|
B-8--8--8--8--8--8--8--8--8-8--8-8--8-8--8-8-|
G--------------------------------------------|
D--------------------------------------------|
A--------------------------------------------|
E--------------------------------------------|

E--10----10----12----12----8----8----7----7--8-|
B-8--8--8--8--8--8--8--8--8-8--8-8--8-8--8-8---|
G----------------------------------------------|
D----------------------------------------------|
A----------------------------------------------|
E----------------------------------------------|


Verse 3:
E-------------------|
B-------------------|
G-------------------|
D-------------------|
A-------3~-------3~-|
E-3~-------3~-------|


Outro:
E----------------------|
B----------------------|
G----------------------|
D----------------------|
A-------------3~-------|
E-3~----0~----------3~-|

Questions?

Almost there ...

Sign in to get your own page with links to favourite songs and more. You are just one click away...

Login with Facebook Login with Google