Guitar Tabs Explorer
Naritaka Takayama guitar tabs for Gekisou sentai carranger

Gekisou Sentai Carranger tab


Be the first to rate

Gekisou Sentai Carranger tab by Naritaka Takayama

Guitar tabs

Print

-------------------------------------------------------------------------------
                           Gekisou Sentai Carranger
-------------------------------------------------------------------------------

e|-----------------------------------1-0-1-----------------------------------3--|
B|-------------------1--0-------------------------------------0-----------------|
G|-----0----0---0--0------2------------------------------------2-0--------0-----|
D|--2-3-2-3-2-3-------------3-3-3-2-3------0-2-3-0-2-3-0-2-3-3-----2-2-2-3------|
A|------------------------------------------------------------------------------|
E|------------------------------------------------------------------------------|

e|---------------------------------------------------------------1---1---1-000-----|
B|-------------------1-0--3--1--1--0-1----0-----1--0---0-1--3--1-------------------|
G|-----0---0---0--0------------------------2-2------2------------------------------|
D|--2-3-2-3-2-3--------------------------------------------------------------------|
A|---------------------------------------------------------------------------------|
E|---------------------------------------------------------------------------------|

e|---------------------------00---0----------------------------------0-1------3-3-----|
B|----1-1-0-1-3-1-3----3-1-3----3-----------------0-0---0-0---0-1--3-----3------------|
G|--2-------------------------------2-2-0-2-2-0-2-----2-----2-------------------------|
D|------------------------------------------------------------------------------------|
A|------------------------------------------------------------------------------------|
E|------------------------------------------------------------------------------------|

e|---1-0---1-0-0-1-3-1-1-0---1-0---00-0-00----------------------3-3---1-0---1-0-0-1-3----|
B|-------------------------1-----1-----------3---3--1--0--1--3---------------------------|
G|-0-----0-------------------------------------2--------------------0-----0--------------|
D|---------------------------------------------------------------------------------------|
A|---------------------------------------------------------------------------------------|
E|---------------------------------------------------------------------------------------|

e|--1-1-0---1-0---00-0-00-------------------------------1--0--------------------|
B|--------1-----1-----------3---3-1---0---1---3-----0-1-------3--1--3--33-1-----|
G|----------------------------2-----------------22------------------------------|
D|------------------------------------------------------------------------------|
A|------------------------------------------------------------------------------|
E|------------------------------------------------------------------------------|

************************************

| /   slide up
| \   slide down
| h   hammer-on
| p   pull-off
| ~   vibrato
| +   harmonic
| x   Mute note
| b   Bend
| pb  Pre-bend
| br  Bend release
| pbr Pre-bend release
| brb Bend release bend

************************************

Other versions of Gekisou Sentai Carranger

- Gekisou sentai carrangerChords

Comment this song and these guitar tabs

Do you have corrections, comments on the guitar tabs, thoughts about the song or a message to the author? Write them below.