GuitarTabsExplorer icon
GuitarTabsExplorer icon

Log in

Songbook

  • Log in to add and see bookmarks

Last visited songs

    No songs visited yet...

I Feel Rage by Taina

Tabs with lyrics

-------------------------------------------------------------------------------
                             I Feel Rage - TAINA
-------------------------------------------------------------------------------
Tabbed by: erik1003
E-mail: [email protected]
Submitted to GTE by: Ray


Tuning: Dropped Chord diagramD MajorD (DADGBE)

      W                 8x  Chord diagramE MajorE   Q     Q    Chord diagramE MajorE   Chord diagramE MajorE  Chord diagramE MajorE
Chord diagramE MajorE||---------------------||---------------------------|
Chord diagramBB||---------------------||---------------------------|
Chord diagramG+G||*-------------------*||--5--/7----10----9--\7-----|
Chord diagramD MajorD||*-------------------*||--5--/7----10----9--\7-----|
Chord diagramA augmentedA||---------------------||--3--/5-----8----7--\5-----|
Chord diagramD MajorD||---------------------||------------------------0--|
  PM        PM PM                                    PM
  Chord diagramE MajorE  Chord diagramE MajorE   Chord diagramE MajorE  Chord diagramE MajorE  Chord diagramE MajorE   Chord diagramE MajorE   Q       Chord diagramE MajorE   Q     Q    Chord diagramE MajorE   Chord diagramE MajorE  Chord diagramE MajorE
----------------------------|---------------------------|
----------------------------|---------------------------|
-----5--/7--------10--\7----|--5--/7----10----9--\7-----|
-----5--/7--------10--\7----|--5--/7----10----9--\7-----|
-----3--/5---------8--\5----|--3--/5-----8----7--\5-----|
--0---------0--0------------|------------------------0--|


  PM      PM PM PM                               PM
  Chord diagramE MajorE  Q    Chord diagramE MajorE  Chord diagramE MajorE  Chord diagramE MajorE  Q       Chord diagramE MajorE   Q     Q    Chord diagramE MajorE   Chord diagramE MajorE  Chord diagramE MajorE
------------------------|---------------------------|
------------------------|---------------------------|
-----5-------------7----|--5--/7----10----9--\7-----|
-----5-------------7----|--5--/7----10----9--\7-----|
-----3-------------5----|--3--/5-----8----7--\5-----|
--0-------0--0--0-------|------------------------0--|


  PM        PM PM                                    PM
  Chord diagramE MajorE  Chord diagramE MajorE   Chord diagramE MajorE  Chord diagramE MajorE  Chord diagramE MajorE   Chord diagramE MajorE   Q       Chord diagramE MajorE   Q     Q    Chord diagramE MajorE   Chord diagramE MajorE  Chord diagramE MajorE
----------------------------|---------------------------|
----------------------------|---------------------------|
-----5--/7--------10--\7----|--5--/7----10----9--\7-----|
-----5--/7--------10--\7----|--5--/7----10----9--\7-----|
-----3--/5---------8--\5----|--3--/5-----8----7--\5-----|
--0---------0--0------------|------------------------0--|


  PM      PM PM                                                          PM
  Chord diagramE MajorE  Q    Chord diagramE MajorE  Chord diagramE MajorE  Q.          W                16x   Chord diagramE MajorE   Q     Q    Chord diagramE MajorE   Chord diagramE MajorE  Chord diagramE MajorE
-----------------------||---------------------||----------------------------|
-----------------------||---------------------||----------------------------|
-----5----------5------||*-------------------*||*--5--/7----10----9--\7-----|
-----5----------5------||*-------------------*||*--5--/7----10----9--\7-----|
-----3----------3------||---------------------||---3--/5-----8----7--\5-----|
--0-------0--0---------||---------------------||-------------------------0--|
  PM        PM PM                                    PM
  Chord diagramE MajorE  Chord diagramE MajorE   Chord diagramE MajorE  Chord diagramE MajorE  Chord diagramE MajorE   Chord diagramE MajorE   Q       Chord diagramE MajorE   Q     Q    Chord diagramE MajorE   Chord diagramE MajorE  Chord diagramE MajorE
----------------------------|---------------------------|
----------------------------|---------------------------|
-----5--/7--------10--\7----|--5--/7----10----9--\7-----|
-----5--/7--------10--\7----|--5--/7----10----9--\7-----|
-----3--/5---------8--\5----|--3--/5-----8----7--\5-----|
--0---------0--0------------|------------------------0--|


  PM      PM PM PM                               PM
  Chord diagramE MajorE  Q    Chord diagramE MajorE  Chord diagramE MajorE  Chord diagramE MajorE  Q       Chord diagramE MajorE   Q     Q    Chord diagramE MajorE   Chord diagramE MajorE  Chord diagramE MajorE
------------------------|---------------------------|
------------------------|---------------------------|
-----5-------------7----|--5--/7----10----9--\7-----|
-----5-------------7----|--5--/7----10----9--\7-----|
-----3-------------5----|--3--/5-----8----7--\5-----|
--0-------0--0--0-------|------------------------0--|


  PM        PM PM                                    PM
  Chord diagramE MajorE  Chord diagramE MajorE   Chord diagramE MajorE  Chord diagramE MajorE  Chord diagramE MajorE   Chord diagramE MajorE   Q       Chord diagramE MajorE   Q     Q    Chord diagramE MajorE   Chord diagramE MajorE  Chord diagramE MajorE
----------------------------|---------------------------|
----------------------------|---------------------------|
-----5--/7--------10--\7----|--5--/7----10----9--\7-----|
-----5--/7--------10--\7----|--5--/7----10----9--\7-----|
-----3--/5---------8--\5----|--3--/5-----8----7--\5-----|
--0---------0--0------------|------------------------0--|


  PM      PM PM             PM      PM PM      PM      PM PM PM PM PM PM PM
  Chord diagramE MajorE  Q    Chord diagramE MajorE  Chord diagramE MajorE  Q.          Chord diagramE MajorE  Q    Chord diagramE MajorE  Chord diagramE MajorE  Q    Chord diagramE MajorE       Chord diagramE MajorE  Chord diagramE MajorE  Chord diagramE MajorE  Chord diagramE MajorE  Chord diagramE MajorE  Chord diagramE MajorE  Chord diagramE MajorE  Chord diagramE MajorE
------------------------||------------------------||---------------------------|
------------------------||------------------------||---------------------------|
-----5----------5------*||-----5----------5-------||*--------------------------|
-----5----------5------*||-----5----------5----0--||*--0--0--0--0--0--0--0-----|
-----3----------3-------||-----3----------3----0--||---0--0--0--0--0--0--0-----|
--0-------0--0----------||--0-------0--0-------0--||---0--0--0--0--0--0--0-----|


                  PM
  H.           Chord diagramE MajorE  Chord diagramE MajorE   8x  H.           Chord diagramE MajorE  Chord diagramE MajorE       Chord diagramE MajorE  Chord diagramE MajorE  Chord diagramE MajorE  Chord diagramE MajorE  Chord diagramE MajorE  Chord diagramE MajorE  Chord diagramE MajorE  Chord diagramE MajorE
----------------------||---------------------||---------------------------|
----------------------||---------------------||---------------------------|
---------------------*||---------------------||*--------------------------|
------------------0--*||---------------------||*--------------------------|
------------------0---||---------------------||---------------------------|
------------------0---||------------------0--||---0--0--0--0--0--0--0--0--|


  Chord diagramE MajorE  Chord diagramE MajorE  Chord diagramE MajorE  Chord diagramE MajorE  Chord diagramE MajorE  Chord diagramE MajorE  Chord diagramE MajorE  Chord diagramE MajorE     Chord diagramE MajorE  Chord diagramE MajorE  Chord diagramE MajorE  Chord diagramE MajorE  Chord diagramE MajorE  Chord diagramE MajorE  Chord diagramE MajorE  Chord diagramE MajorE
--------------------------|--------------------------|
--------------------------|--------------------------|
--------------------------|--------------------------|
--------------------------|--------------------------|
--------------------------|--------------------------|
--0--0--0--0--0--0--0--0--|--0--0--0--0--0--0--0--0--|


  Chord diagramE MajorE  Chord diagramE MajorE  Chord diagramE MajorE  Chord diagramE MajorE  Chord diagramE MajorE  Chord diagramE MajorE  Chord diagramE MajorE  Chord diagramE MajorE     Chord diagramE MajorE  Chord diagramE MajorE  Chord diagramE MajorE  Chord diagramE MajorE  Chord diagramE MajorE  Chord diagramE MajorE  Chord diagramE MajorE  Chord diagramE MajorE
--------------------------|--------------------------|
--------------------------|--------------------------|
--------------------------|--------------------------|
--------------------------|--------------------------|
--------------------------|--------------------------|
--0--0--0--0--0--0--0--5--|--5--5--5--5--5--5--5--3--|


  Chord diagramE MajorE  Chord diagramE MajorE  Chord diagramE MajorE  Chord diagramE MajorE  Chord diagramE MajorE  Chord diagramE MajorE  Chord diagramE MajorE  Chord diagramE MajorE       Chord diagramE MajorE  Chord diagramE MajorE  Chord diagramE MajorE  Chord diagramE MajorE  Chord diagramE MajorE  Chord diagramE MajorE  Chord diagramE MajorE  Chord diagramE MajorE     W
---------------------------||--------------------------|-------------------|
---------------------------||--------------------------|-------------------|
--------------------------*||--------------------------|-------------------|
--------------------------*||--------------------------|-------------------|
---------------------------||--------------------------|-------------------|
--3--3--3--3--3--3--3--0---||--3--3--3--3--3--3--3-----|-------------------|


                        PM    PM        PM PM
  Chord diagramE MajorE   Q     Q    Chord diagramE MajorE   Chord diagramE MajorE  Chord diagramE MajorE     Chord diagramE MajorE  Chord diagramE MajorE   Chord diagramE MajorE  Chord diagramE MajorE  Chord diagramE MajorE   Chord diagramE MajorE   Q
---------------------------|----------------------------|
---------------------------|----------------------------|
--5--/7----10----9--\7-----|-----5--/7--------10--\7----|
--5--/7----10----9--\7-----|-----5--/7--------10--\7----|
--3--/5-----8----7--\5-----|-----3--/5---------8--\5----|
------------------------0--|--0---------0--0------------|


                        PM    PM      PM PM PM
  Chord diagramE MajorE   Q     Q    Chord diagramE MajorE   Chord diagramE MajorE  Chord diagramE MajorE     Chord diagramE MajorE  Q    Chord diagramE MajorE  Chord diagramE MajorE  Chord diagramE MajorE  Q
---------------------------|------------------------|
---------------------------|------------------------|
--5--/7----10----9--\7-----|-----5-------------7----|
--5--/7----10----9--\7-----|-----5-------------7----|
--3--/5-----8----7--\5-----|-----3-------------5----|
------------------------0--|--0-------0--0--0-------|


                        PM    PM        PM PM
  Chord diagramE MajorE   Q     Q    Chord diagramE MajorE   Chord diagramE MajorE  Chord diagramE MajorE     Chord diagramE MajorE  Chord diagramE MajorE   Chord diagramE MajorE  Chord diagramE MajorE  Chord diagramE MajorE   Chord diagramE MajorE   Q
---------------------------|----------------------------|
---------------------------|----------------------------|
--5--/7----10----9--\7-----|-----5--/7--------10--\7----|
--5--/7----10----9--\7-----|-----5--/7--------10--\7----|
--3--/5-----8----7--\5-----|-----3--/5---------8--\5----|
------------------------0--|--0---------0--0------------|


                        PM    PM      PM PM
  Chord diagramE MajorE   Q     Q    Chord diagramE MajorE   Chord diagramE MajorE  Chord diagramE MajorE     Chord diagramE MajorE  Q    Chord diagramE MajorE  Chord diagramE MajorE  Q.          W                 8x
---------------------------|-----------------------||---------------------||
---------------------------|-----------------------||---------------------||
--5--/7----10----9--\7-----|-----5----------5------||*-------------------*||
--5--/7----10----9--\7-----|-----5----------5------||*-------------------*||
--3--/5-----8----7--\5-----|-----3----------3------||---------------------||
------------------------0--|--0-------0--0---------||---------------------||


                         PM    PM        PM PM
   Chord diagramE MajorE   Q     Q    Chord diagramE MajorE   Chord diagramE MajorE  Chord diagramE MajorE     Chord diagramE MajorE  Chord diagramE MajorE   Chord diagramE MajorE  Chord diagramE MajorE  Chord diagramE MajorE   Chord diagramE MajorE   Q
----------------------------|----------------------------|
----------------------------|----------------------------|
*--5--/7----10----9--\7-----|-----5--/7--------10--\7----|
*--5--/7----10----9--\7-----|-----5--/7--------10--\7----|
---3--/5-----8----7--\5-----|-----3--/5---------8--\5----|
-------------------------0--|--0---------0--0------------|


                        PM    PM      PM PM PM
  Chord diagramE MajorE   Q     Q    Chord diagramE MajorE   Chord diagramE MajorE  Chord diagramE MajorE     Chord diagramE MajorE  Q    Chord diagramE MajorE  Chord diagramE MajorE  Chord diagramE MajorE  Q
---------------------------|------------------------|
---------------------------|------------------------|
--5--/7----10----9--\7-----|-----5-------------7----|
--5--/7----10----9--\7-----|-----5-------------7----|
--3--/5-----8----7--\5-----|-----3-------------5----|
------------------------0--|--0-------0--0--0-------|


                        PM    PM        PM PM
  Chord diagramE MajorE   Q     Q    Chord diagramE MajorE   Chord diagramE MajorE  Chord diagramE MajorE     Chord diagramE MajorE  Chord diagramE MajorE   Chord diagramE MajorE  Chord diagramE MajorE  Chord diagramE MajorE   Chord diagramE MajorE   Q
---------------------------|----------------------------|
---------------------------|----------------------------|
--5--/7----10----9--\7-----|-----5--/7--------10--\7----|
--5--/7----10----9--\7-----|-----5--/7--------10--\7----|
--3--/5-----8----7--\5-----|-----3--/5---------8--\5----|
------------------------0--|--0---------0--0------------|


                        PM    PM      PM PM             PM      PM PM      PM
  Chord diagramE MajorE   Q     Q    Chord diagramE MajorE   Chord diagramE MajorE  Chord diagramE MajorE     Chord diagramE MajorE  Q    Chord diagramE MajorE  Chord diagramE MajorE  Q.          Chord diagramE MajorE  Q    Chord diagramE MajorE  Chord diagramE MajorE  Q    Chord diagramE MajorE
---------------------------|------------------------||------------------------|
---------------------------|------------------------||------------------------|
--5--/7----10----9--\7-----|-----5----------5------*||-----5----------5-------|
--5--/7----10----9--\7-----|-----5----------5------*||-----5----------5----0--|
--3--/5-----8----7--\5-----|-----3----------3-------||-----3----------3----0--|
------------------------0--|--0-------0--0----------||--0-------0--0-------0--|


    PM PM PM PM PM PM PM                       PM
    Chord diagramE MajorE  Chord diagramE MajorE  Chord diagramE MajorE  Chord diagramE MajorE  Chord diagramE MajorE  Chord diagramE MajorE  Chord diagramE MajorE  Chord diagramE MajorE     H.           Chord diagramE MajorE  Chord diagramE MajorE   8x  H.           Chord diagramE MajorE  Chord diagramE MajorE
|---------------------------|----------------------||---------------------|
|---------------------------|----------------------||---------------------|
|*--------------------------|---------------------*||---------------------|
|*--0--0--0--0--0--0--0-----|------------------0--*||---------------------|
|---0--0--0--0--0--0--0-----|------------------0---||---------------------|
|---0--0--0--0--0--0--0-----|------------------0---||------------------0--|


    Chord diagramE MajorE  Chord diagramE MajorE  Chord diagramE MajorE  Chord diagramE MajorE  Chord diagramE MajorE  Chord diagramE MajorE  Chord diagramE MajorE  Chord diagramE MajorE     Chord diagramE MajorE  Chord diagramE MajorE  Chord diagramE MajorE  Chord diagramE MajorE  Chord diagramE MajorE  Chord diagramE MajorE  Chord diagramE MajorE  Chord diagramE MajorE
|---------------------------|--------------------------|
|---------------------------|--------------------------|
|*--------------------------|--------------------------|
|*--------------------------|--------------------------|
|---------------------------|--------------------------|
|---0--0--0--0--0--0--0--0--|--0--0--0--0--0--0--0--0--|


  Chord diagramE MajorE  Chord diagramE MajorE  Chord diagramE MajorE  Chord diagramE MajorE  Chord diagramE MajorE  Chord diagramE MajorE  Chord diagramE MajorE  Chord diagramE MajorE     Chord diagramE MajorE  Chord diagramE MajorE  Chord diagramE MajorE  Chord diagramE MajorE  Chord diagramE MajorE  Chord diagramE MajorE  Chord diagramE MajorE  Chord diagramE MajorE
--------------------------|--------------------------|
--------------------------|--------------------------|
--------------------------|--------------------------|
--------------------------|--------------------------|
--------------------------|--------------------------|
--0--0--0--0--0--0--0--0--|--0--0--0--0--0--0--0--5--|


  Chord diagramE MajorE  Chord diagramE MajorE  Chord diagramE MajorE  Chord diagramE MajorE  Chord diagramE MajorE  Chord diagramE MajorE  Chord diagramE MajorE  Chord diagramE MajorE     Chord diagramE MajorE  Chord diagramE MajorE  Chord diagramE MajorE  Chord diagramE MajorE  Chord diagramE MajorE  Chord diagramE MajorE  Chord diagramE MajorE  Chord diagramE MajorE
--------------------------|---------------------------||
--------------------------|---------------------------||
--------------------------|--------------------------*||
--------------------------|--------------------------*||
--------------------------|---------------------------||
--5--5--5--5--5--5--5--3--|--3--3--3--3--3--3--3--0---||


                                                                         PM
  Chord diagramE MajorE  Chord diagramE MajorE  Chord diagramE MajorE  Chord diagramE MajorE  Chord diagramE MajorE  Chord diagramE MajorE  Chord diagramE MajorE  Chord diagramE MajorE     W                     Chord diagramE MajorE   Q     Q    Chord diagramE MajorE   Chord diagramE MajorE  Chord diagramE MajorE
--------------------------|-------------------||----------------------------|
--------------------------|-------------------||----------------------------|
--------------------------|-------------------||*--5--/7----10----9--\7-----|
--------------------------|-------------------||*--5--/7----10----9--\7-----|
--------------------------|-------------------||---3--/5-----8----7--\5-----|
--3--3--3--3--3--3--3-----|-------------------||-------------------------0--|


  PM        PM PM                                    PM
  Chord diagramE MajorE  Chord diagramE MajorE   Chord diagramE MajorE  Chord diagramE MajorE  Chord diagramE MajorE   Chord diagramE MajorE   Q       Chord diagramE MajorE   Q     Q    Chord diagramE MajorE   Chord diagramE MajorE  Chord diagramE MajorE
----------------------------|---------------------------|
----------------------------|---------------------------|
-----5--/7--------10--\7----|--5--/7----10----9--\7-----|
-----5--/7--------10--\7----|--5--/7----10----9--\7-----|
-----3--/5---------8--\5----|--3--/5-----8----7--\5-----|
--0---------0--0------------|------------------------0--|


  PM      PM PM PM                               PM
  Chord diagramE MajorE  Q    Chord diagramE MajorE  Chord diagramE MajorE  Chord diagramE MajorE  Q       Chord diagramE MajorE   Q     Q    Chord diagramE MajorE   Chord diagramE MajorE  Chord diagramE MajorE
------------------------|---------------------------|
------------------------|---------------------------|
-----5-------------7----|--5--/7----10----9--\7-----|
-----5-------------7----|--5--/7----10----9--\7-----|
-----3-------------5----|--3--/5-----8----7--\5-----|
--0-------0--0--0-------|------------------------0--|


  PM        PM PM                                    PM
  Chord diagramE MajorE  Chord diagramE MajorE   Chord diagramE MajorE  Chord diagramE MajorE  Chord diagramE MajorE   Chord diagramE MajorE   Q       Chord diagramE MajorE   Q     Q    Chord diagramE MajorE   Chord diagramE MajorE  Chord diagramE MajorE
----------------------------|---------------------------|
----------------------------|---------------------------|
-----5--/7--------10--\7----|--5- /7----10----9--\7-----|
-----5--/7--------10--\7----|--5--/7----10----9--\7-----|
-----3--/5---------8--\5----|--3--/5-----8----7--\5-----|
--0---------0--0------------|------------------------0--|


  PM      PM PM
  Chord diagramE MajorE  Q    Chord diagramE MajorE  Chord diagramE MajorE  Q.
------------------------||
------------------------||
-----5----------5------*||
-----5----------5------*||
-----3----------3-------||
--0-------0--0----------||



Duration 🏷Legend
---------------
W - whole
H - half
Q - quarter
Chord diagramE MajorE - 8th
S - 16th
T - 32nd
X - 64th
. - note dotted
|-n-|  - n-tuplets


Tablature 🏷Legend
----------------
L - tied note
x - dead note
g - grace note
(n) - ghost note
> - accentuded note
NH - natural harmonic
AH - artificial harmonic
TH - tapped harmonic
SH - semi harmonic
PH - pitch harmonic
h - hammer on
p - pull off
b - bend
br - bendRelease
pb - preBend
pbr - preBendRelease
brb - bendReleaseBend
\n/ - tremolo bar dip
\n - tremolo bar dive
-/n - tremolo bar Release up
/n\ - tremolo bar inverted dip
/n - tremolo bar return
-\n - tremolo bar Release down
S - shift slide
s - legato slide
/ -  slide into from below or out of upwards
\ -  slide into from above or out of downwards
~ - vibrato
W - wide vibrato
tr - trill
TP - tremolo picking
T - tapping
S - slap
P - pop
< - fade in
^ - brush up
v - brush down

Tuning: Dropped Chord diagramD MajorD

[ Privacy | About us ]

Welcome to the guitar community

Why join and log in?
- Get songbook with favourite songs
- Get custom made front page
- Submit chords and tabs
- Submit guitar-cover videos
- Get a lot of thumbs up for your work

Songbook

Last visited songs

Site
Home
Search
Community
Submit chords
Submit video

Video

No video for this page. Check out how you can submit guitar-cover videos here

Search tabs and chords

Browse by artist

A B C D E F G H I J K L M N O P Q R S T U V W X Y Z #


Menu

Search

Video

Bookmark

Login