Log in

One click and you are in

Login with Facebook Login with Google

Why sign up and log in

Guitar Tabs Explorer
Taimane chords for Phantom of the opera ukulele

Phantom Of The Opera Ukulele chords - Taimane

Taimane chords for Phantom of the opera ukulele

Guitar chords

Tuning: G C E A (G C E A)


Intro:
A|-0-3/5-0-3-3-3-3p1-------3---0-----0-------0-|
E|---------3-----------3-------1---1-----1---1-|
C|---------2-----------0-------2-2-----2-----2-|
G|---------0---------0-0-0---0-3-----------3-2-|
A|-0-3/5-0-3-3-3-3p1-------3---0-----0-------0-|
E|---------3-----------3-------1---1-----1---1-|
C|---------2-----------0-------2-2-----2-----2-|
G|---------0---------0-0-0---0-3-----------3-2-|


Verse 1:

A|---------0-0-0---------------3-0-0-----0-------0-0-|
E|-----1-1-----1-3-3-3p1-0-3-0-----1---1-----1---1-1-|
C|-2-2---------2-----------0-------2-2-----2-----2-2-|
G|-------------3-----------0-------3-----------3-2-2-|

A|-5--5-3-1-0---------0-----0-------------|
E|-5--5-------3-1-0---1---1-----1---------|
C|-5--5-------------2-2-2-----2-----------|
G|-7--7---------------2-----------2-2b-2b-|


Verse 2:

First three chords are played in a fingerstyle pattern. The next chord is a series of strums.

A|-0--0--0--0-0-0-0-0--0-3/5-0-3N-1N-0N--------3-3----------------|
E|-1--1--1--1-1-1-1-1-------------------3--3-3-----3-3-0h1N/3N/5N-|
C|-2--2--2--2-2-2-2-2----------------------------------0h2N/4N/5N-|
G|-3--2--3--2-2-2-2-2---------------------------------------------|

A|-0-3/5-0-3N-1N-0N--------3-3-----5Nh7Nh8N-|
E|------------------3--3-3-----3-3-5N-------|
C|------------------------------------------|
G|------------------------------------------|

A|-0N-5N-8N-12N-10N---15N-10N-12N-10N-8N--4N5N-|
E|---------------------------------------------|
C|---------------------------------------------|
G|---------------------------------------------|

A|-17N-15-13-12-10-8-7-5-4-4h5p4------------------|
E|-------------------------------4-4hp4-5-5/6-6-6-|
C|------------------------------------------------|
G|------------------------------------------------|


Verse 3:
  D D D U D U D D D D D D D D D D D U D U D D D D D D D D
A|-5-5-5--5-5-5-5-5--5-5-4-3-2-1-1-1-1--1-1-1-1-1--1-1-2-3-4-5-|
E|-5-5-5--5-5-5-5-5--5-5-4-3-2-1-1-1-1--1-1-1-1-1--1-1-2-3-4-5-|
C|-5-5-5--5-5-5-5-5--5-5-4-3-2-1-1-1-1--1-1-1-1-1--1-1-2-3-4-5-|
G|-7-7-7--7-7-7-7-7--7-7-6-5-4-3-3-3-3--3-3-3-3-3--3-3-4-5-6-7-|

  D D D D D D D D D D D D D D D D D U D U D D
A|-5-5-5--8-8-8-5-5--5-5-4-3-2-1-1-1-1--1-1-1-1-1--0-0-0-0-|
E|-5-5-5--5-5-5-5-5--5-5-4-3-2-1-1-1-1--1-1-1-1-1--1-1-1-1-|
C|-5-5-5--5-5-5-5-5--5-5-4-3-2-1-1-1-1--1-1-1-1-1--2-2-2-2-|
G|-7-7-7--7-7-7-7-7--7-7-6-5-4-3-3-3-3--3-3-3-3-3--2-2-2-2-|


Verse 4:

Strumming
A|-0-0-0-0-x-x--8N/7N/5Nh6p5N/3N/5N/-8N---7-|
E|-1-1-1-1-x-x-10N/8N/5N-----/5N/6N/10N---7-|
C|-2-2-2-2-x-x----------------------------7-|
G|-3-2-3-2-x-x----------------------------9-|

A|-7--3-x-x-10N/-9N/7Np9h7N/5N/7N/10N--0/11N-13N-15N-17N-18N-|
E|-7--3-x-x-12N/10N/7N-----/7N/8N/12N--0/13N-----------------|
C|-7--4-x-x--------------------------------------------------|
G|-9--5-x-x--------------------------------------------------|


CVerse 5:

A|-0N/25N/20N/25N/0N--8N-------7N-8N-------7/10N/11N/7N/8N/10N/11N/7N/8N\-|
E|-----------------------8N-9N-------8N-9N-9/12N/13N/7N/8N/12N/13N/8N/9N\-|
C|------------------------------------------------------------------------|
G|------------------------------------------------------------------------|

A|----------------------------------3-------3----0N--6N-7N--8N-|
E|-1-1-1-1-1-1-1------------------3-------3---0--0N--6N-7N--8N-|
C|---------------3-1-0h1p0-1-3-0--------0--------1N--6N-7N--8N-|
G|------------------------------------0----------1N--8N-9N-10N-|


************************************

| x  Dead note
| h  Hammer-on
| p  Pull-off
| b  Bend
| /  Slide up
| \  Slide down
| N  Tremolo

************************************

Almost there ...

Sign in to get your own page with links to favourite songs and more. You are just one click away...

Login with Facebook Login with Google