Log in

One click and you are in

Login with Facebook Login with Google

Why sign up and log in

Guitar Tabs Explorer
Sza bass tabs for The other side

Bass tabs

NOTE: Best performed on 5 string bass


Tuning: B-E-A-D-G

Repeat lines below over almost the entire song.
Use intro to chorus for the beginning of the chorus.
Rap section has no bass.

default:

G |---------------------------------|
D |---------------------------------|
A |------------3-5---5--------------|
E |---3-5-----5---------------------|
B |-------------------3-3-3---------|

variation #1:

G |---------------------------------|
D |---------------------------------|
A |------------3-5---5--------------|
E |---3-5-----5-------------5-3-----|
B |-------------------3-3-3---------|

variation #2:

G |---------------------------------|
D |---------------------------------|
A |------------3-5---5--5---5-3-----|
E |---3-5-----5---------------------|
B |-------------------3---3---------|


intro to chorus:

G |---------------------------------|
D |---------------------------------|
A |---------------------------------|
E |---3---0-3-5----3-5-6------------|
B |---------------------------------|

Almost there ...

Sign in to get your own page with links to favourite songs and more. You are just one click away...

Login with Facebook Login with Google