Log in

One click and you are in

Login with Facebook Login with Google

Why sign up and log in

Guitar Tabs Explorer
Sza bass tabs for Go gina

Bass tabs

Key: Bm

Instrument: 5-string bass

Tuning: EADGC
Note: let all possible notes ring at all times


Intro:

C|------6-----6-----------6-------|--------------------------------|
G|------------------6---------6/--|----16----16----18----18----18--|
D|--------------------------------|--16----16----18----18----18----|
A|----5-----5-----5-----5---------|12----12----14----14----14------|
E|--------------------------------|--------------------------------|
 1 e + a 2 e + a 3 e + a 4 e + a 1 e + a 2 e + a 3 e + a 4 e + a


Verse 1:

I loves you bae...
C|------6-----6-----------6-------|--------------------------------|
G|--6-------6-------6---------6/--|----16----16----18----18----18--|
D|--------------------------------|--16----16----18----18----18----|
A|5---5---5-------5-----5---------|12----12----14----14----14------|
E|--------------------------------|--------------------------------|

Easier than holding you...
C|------6-----------6---------6---|--------------------------------|
G|--6---------6-----------6-------|----16----16----18----18----18--|
D|--------------------------------|--16----16----18----18----18----|
A|5---5-----5-----5-----5---------|12----12----14----14----14------|
E|--------------------------------|--------------------------------|

Up now, I said...
C|------6-----6-----------6-------|--------------------------------|
G|--6-------6-------6---------6/--|----16----16----18----18----18--|
D|--------------------------------|--16----16----18----18----18----|
A|5---5-----------5---------------|12----12----14----14----14------|
E|--------------------------------|--------------------------------|

Finally true what they...
C|------6-----6-----------6-------|--------------------------------|
G|--6---------------6---------6/--|----16----16----18----18----18--|
D|--------------------------------|--16----16----18----18----18----|
A|5---5-----5-----5-----5---------|12----12----14----14----14------|
E|--------------------------------|--------------------------------|

Usually come from your...
C|------6-----------6---------6---|--------------------------------|
G|--6---------6---6-------6-------|----16----16----18----18----18--|
D|--------------------------------|--16----16----18----18----18----|
A|5---5-----5-----------5---------|12----12----14----14----14------|
E|--------------------------------|--------------------------------|

I've been droppin' out...
C|------6-----6-----------6-------|--------------------------------|
G|--6---------------6---------6/--|----16----16----18----18----18--|
D|--------------------------------|--16----16----18----18----18----|
A|5---5-----5-----5-----5---------|12----12----14----14----14------|
E|--------------------------------|--------------------------------|

And we too stoned...
C|------6-----6-----------6-------|--------------------------------|
G|--6---------------6---------6/--|----16----16--------------------|
D|--------------------------------|--16----16----------------------|
A|5---5-----5-----5-----5---------|14----12----14\-M---------------|
E|--------------------------------|------------------------0/------|
 1 e + a 2 e + a 3 e + a 4 e + a 1 e + a 2 e + a 3 e + a 4 e + a

Same me...
C|6-----6-----------6---------6/--|--------------------------------|
G|--6---------6---6-------6-------|----16----16----18----18----18--|
D|--------------------------------|--16----16----18----18----18----|
A|----5-----5-----------5---------|12----12----14----14----14------|
E|--------------------------------|--------------------------------|

Learnin' on the low-key...
C|------6-----6-----------6-------|----------------------------------------|
G|--6---------------6---------6/--|----16----16----18----18h-19h-18--------|
D|--------------------------------|--16----16----18----18----------18------|
A|5---5-----5-----5-----5---------|12----12----14----14--------------19----|
E|--------------------------------|----------------------------------------|

Chorus:
Out of character...
C|------6-----------6---------6---|--------------------------------|
G|--6---------6---6-------6-------|----16----16----18----18----18--|
D|--------------------------------|--16----16----18----18----18----|
A|5---5-----5-----------5---------|12----12----14----14----14------|
E|--------------------------------|--------------------------------|

Them jeans...
C|------6-----6-----------6-------|--------------------------------|
G|--6-------6-------6---------6/--|----16----16----18----18----18--|
D|--------------------------------|--16----16----18----18----18----|
A|5---5---5-------5-----5---------|12----12----14----14----14------|
E|--------------------------------|--------------------------------|

Go Gina...
C|------6-----6-----------6-------|--------------------------------|
G|--6-------6-------6---------6---|----16----16----18----18----18--|
D|--------------------------------|--16----16----18----18----18----|
A|5---5---5-----------------------|12----12----14----14----14------|
E|--------------------------------|--------------------------------|

C|------6-----6-----------6-------|--------------------------------|
G|--6-------6-------6---------6---|----16----16----18----18--------|
D|--------------------------------|--16----16----18----18----------|
A|5---5---5-----------------------|12----12----14----14------------|
E|--------------------------------|--------------------------------|


Verse 2:

I belong to...
C|------6-----------------6-------|--------------------------------|
G|--6-------6-------6---------6/--|----16----16----18----18----18--|
D|--------------------------------|--16----16----18----18----18----|
A|5---------------5-----5---------|12----12----14----14----14------|
E|--------------------------------|--------------------------------|

C|------6-----------6---------6---|--------------------------------|
G|--6---------6-----------6-------|----16----16----18----18----18--|
D|--------------------------------|--16----16----18----18----18----|
A|5---------------5---------------|12----12----14----14----14------|
E|--------------------------------|--------------------------------|


Chorus:

It works for me...
C|------------6-----------6-------|--------------------------------|
G|--6---6-----------6---------6/--|----16----16----18----18----18--|
D|--------------------------------|--16----16----18----18----18----|
A|5---5-----5---------------------|12----12----14----14----14------|
E|--------------------------------|--------------------------------|

C|------6-----------6---------6---|---------------------------------------|
G|--6---------6-----------6-------|----16----16----18----18-18-h19-p18----|
D|--------------------------------|--16----16----18----18-----------------|
A|5---5-----5-----5-----5---------|12----12----14----14-------------------|
E|--------------------------------|---------------------------------------|

C|------6-----------6---------6---|--------------------------------|
G|--6---------6---6-------6-------|----16----16----18----18----18--|
D|--------------------------------|--16----16----18----18----18----|
A|5---5-----5-----------5---------|12----12----14----14----14------|
E|--------------------------------|--------------------------------|

C|------6-----6-----------6-------|--------------------------------|
G|--6-------6-------6---------6---|----16----16----18----18----18--|
D|--------------------------------|--16----16----18----18----18----|
A|5---5-----------5-----5---------|12----12----14----14----14------|
E|--------------------------------|--------------------------------|

C|------6-----6---------6-----6---|--------------------------------|
G|--6-------------6---------------|----16----16----18----18----18--|
D|--------------------------------|--16----16----18----18----18----|
A|5---5-----5---------------5-----|12----12----14----14----14------|
E|--------------------------------|--------------------------------|

C|------6-----------------6-------|--------------------------------|
G|--6---------------6-------------|----16---------------18---------|
D|--------------------------------|--16----16----------------------|
A|5---5---------------------------|12----12-------14-12------------|
E|--------------------------------|--------------------------------|


************************************

| h  Hammer-on
| p  Pull-off
| /  Slide up
| \  Slide down
| M  Mute

************************************

Almost there ...

Sign in to get your own page with links to favourite songs and more. You are just one click away...

Login with Facebook Login with Google