Log in

One click and you are in

Login with Facebook Login with Google

Why sign up and log in

Guitar Tabs Explorer
System Of A Down guitar tabs for Toxicity (Ver. 2)

Guitar tabs

SONG: TOXICITY

TUNING: STANDARD
TABBED BY: JSEP

E--------------------------------------------
B--------------------------------------------
G-----12----12----12----12----12----12-------
D--10----10----10----10----10----10----------
A--------------------------------------------
E--------------------------------------------
E--------------------------------------------
B--------------------------------------------
G-----15----15----15----15----15----15-------
D--13----13----13----13----13----13----------
A--------------------------------------------
E--------------------------------------------


E--------------------------------------------
B--------------------------------------------
G-----12----12----12-13---13-12---12---------
D--10----10----10------10------10------------
A--------------------------------------------
E--------------------------------------------


E--------------------------------------------
B--------------------------------------------
G-----15----16----16-15----15-13----13-------
D--13----13----13-------13-------13----------
A--------------------------------------------
E--------------------------------------------

E-----------------------------------------------
B-----------------------------------------------
G-----------------------------------------------
D--10-----13-12-10-12-10---------6--666--5--555-
A--10-----13-12-10-12-10---------6--666--5--555-
E--10-----13-12-10-12-10---------6--666--5--555-

E-----------------------------------------------
B-----------------------------------------------
G-----------------------------------------------
D--10-----13-12-10-12-10---------6--666--5--555-
A--10-----13-12-10-12-10---------6--666--5--555-
E--10-----13-12-10-12-10---------6--666--5--555-


E-----------------------------------------------
B-----------------------------------------------
G-----------------------------------------------
D--13-12-10-12-10-10-13-12-10-10-13-12-10-12-10-10-13-12-10-12-10-10
A--13-12-10-12-10-10-13-12-10-10-13-12-10-12-10-10-13-12-10-12-10-10
E--13-12-10-12-10-10-13-12-10-10-13-12-10-12-10-10-13-12-10-12-10-10


E-----------------------------------------------
B-----------------------------------------------
G-----------------------------------------------
D--6--666--5--555-----10-----13-12-10-12-10---------
A--6--666--5--555-----10-----13-12-10-12-10---------
E--6--666--5--555-----10-----13-12-10-12-10---------


E-----------------------------------------------
B-----------------------------------------------
G-----------------------------------------------
D--6--666--5--555-------------------------------
A--6--666--5--555-------------------------------
E--6--666--5--555-------------------------------


E--------------------------------------------
B--------------------------------------------
G-----12----12----12----12----12----12-------
D--10----10----10----10----10----10----------
A--------------------------------------------
E--------------------------------------------


E--------------------------------------------
B--------------------------------------------
G-----15----15----15----15----15----15-------
D--13----13----13----13----13----13----------
A--------------------------------------------
E--------------------------------------------


E--------------------------------------------
B--------------------------------------------
G-----12----12----12-13---13-12---12---------
D--10----10----10------10------10------------
A--------------------------------------------
E--------------------------------------------


E--------------------------------------------
B--------------------------------------------
G-----15----16----16-15----15-13----13-------
D--13----13----13-------13-------13----------
A--------------------------------------------
E--------------------------------------------

THAT’S ALL I HAVE AT THE MOMENT.
ITS PRETTY SIMPLE.

Other versions of Toxicity

Toxicity acousticChords
Toxicity ukuleleChords
ToxicityTabs
Toxicity live soloTabs

Almost there ...

Sign in to get your own page with links to favourite songs and more. You are just one click away...

Login with Facebook Login with Google