Log in

One click and you are in

Login with Facebook Login with Google

Why sign up and log in

Guitar Tabs Explorer
The Symposium bass tabs for Streems

Bass tabs

Tuning: Standard (E A D G)


Intro:

G|4-4-4-4-4-4-0--1-1-1-1-1-1--------------|
D|---------------------------0------------|
A|------------------------------4-4-4-4-4-|
E|----------------------------------------|

G|--------------------------|
D|--5-4-4-4-4-4-4-----------| Repeat For Verses
A|4-------------------------|
E|--------------------------|


If Anyone Wants To Help Me Out I Think I Might
Be Missing A Couple Notes Between Measures But
I Think This Is A Solid Start For Being
Completely By Ear. Still Trying To Figure Out
The Solo Part After The Chorus Too

Almost there ...

Sign in to get your own page with links to favourite songs and more. You are just one click away...

Login with Facebook Login with Google