Log in

One click and you are in

Login with Facebook Login with Google

Why sign up and log in

Guitar Tabs Explorer
The Symposium bass tabs for Poison

Bass tabs

Tuning: Standard (E A D G)


Intro:

G|----------|
D|----------|
A|----------|
E|--5(x16)--|

G|--------------------------------------------------|
D|--------------------------------------------------|
A|--------------5--5--5--5--------------3--3--3--2--|
E|--5--5--5--5--------------3--3--3--3--------------| x3

G|----------------------------------------|
D|----------------------------------------|
A|--------------5--5--5--5----------------|
E|--5--5--5--5--------------3--3--3--3\0--|

*change of melody*


Second intro:

G|----------|
D|----------|
A|----------|
E|--6(x32)--|


Verse 1:

G|------------------------------------------------------------------|
D|------------------------------------------------------------------|
A|----------6~--6-6---------4~--4-4-3---------------------4~-4-4-3--|
E|--6~--6-6---------4~--4-4------------6-6-6-1-1-1--4-4-4-----------|

G|--------------------------------------|
D|--------------------------------------|
A|----------6~--6-6----------4~--4-4-3--|
E|--6~--6-6----------4~--4-4------------| X2


Chorus:

G|---------------------------|   G|---------------------------|
D|---------------------------|   D|---------------------------|
A|--------6~--6-------4~--4--|   A|--------------------4-4-4--|
E|--6~--6-------4~--4--------| x4 E|--6-6-6-1-1-1-4-4-4--------|


Verse 2:

G|--------------------------------------------------------------------------|
D|--------------------------------------------------------------------------|
A|------------------6~--6-6---------4~--4-4-3---------------------4~-4-4-3--|
E|--6(X16)--6~--6-6---------4~--4-4------------6-6-6-1-1-1--4-4-4-----------|

G|--------------------------------------|
D|--------------------------------------|
A|----------6~--6-6----------4~--4-4-3--|
E|--6~--6-6----------4~--4-4------------| X2


Chorus:

G|---------------------------|   G|---------------------------|
D|---------------------------|   D|---------------------------|
A|--------6~--6-------4~--4--|   A|--------------------4-4-4--|
E|--6~--6-------4~--4--------| x4 E|--6-6-6-1-1-1-4-4-4--------|


Outro: x3

G|----------------------------------------------------------|
D|----------------------------------------------------------|
A|--5-5----5-5----6-6----6-6----6-6----6-6----5-5----5-5----|
E|------6------6------5------5------5------5------6------6--|


************************************

| ~  Vibrato

************************************

Almost there ...

Sign in to get your own page with links to favourite songs and more. You are just one click away...

Login with Facebook Login with Google