Log in

One click and you are in

Login with Facebook Login with Google

Why sign up and log in

Guitar Tabs Explorer
Sylvester bass tabs for You make me feel mighty real

You Make Me Feel Mighty Real bass tab - Sylvester

Sylvester bass tabs for You make me feel mighty real

Bass tabs

  • Difficulty: Intermediate
Tuning: Standard (E A D G)

♫ Intro:
G|---10---10---10---10---10---10---10---10-----10---10---10---10---10---10----------------|
D|----------------------------------------------------------------------------8/10-8------|
A|-8----8----8----8----8----8----8----8------8----8----8----8----8----8----8---------11-8-|
E|----------------------------------------------------------------------------------------|

G|---10---10---10---10---10---10---10---10-----10---10---10---10---10---10----------------|
D|----------------------------------------------------------------------------8/10-8------|
A|-8----8----8----8----8----8----8----8------8----8----8----8----8----8----8---------11-8-|
E|----------------------------------------------------------------------------------------|

G|-----------8---8----10---10--------------------------8---8----10---10-------------------|
D|---8--8-----------------------8/10-8---------8--8-----------------------8/10-8----------|
A|---------6---6----8----8----8--------11-8----------6---6----8----8----8--------11-8-----|
E|-6---6-------------------------------------6---6----------------------------------------|

G|-----------8---8----10---10--------------------------8---8----10---10---10--------------|
D|---8--8-----------------------8/10-8---------8--8---------------------------------------|
A|---------6---6----8----8----8--------11-8----------6---6----8----8----8----8-7----------|
E|-6---6-------------------------------------6---6----------------------------------------|

♫ Verse 1:
...out there dancing on the floor...
G|---7---7---7---7---------------------7---7---7---7------------------|
D|-------------------8---8---7---7---------------------8---8---7---7--|
A|-5---5---5---5---------------------5---5---5---5--------------------|
E|-----------------6---6---5---5---------------------6---6---5---5----|

...feel your body close to mine...
G|---7---7---7---7---------------------7---7---7---7------------------|
D|-------------------8---8---7---7---------------------8---8---7------|
A|-5---5---5---5---------------------5---5---5---5--------------------|
E|-----------------6---6---5---5---------------------6---6---5--------|

♫ Pre-Chorus:
 Make me feel, mighty real...
G|----10---10---10---10---10---10-------------------10---10---10---10---10---10---------------|
D|----------------------------------8/10-8----------------------------------------8/10-8------|
A|-/8----8----8----8----8----8----8--------11-8---8----8----8----8----8----8----8--------11-8-|
E|--------------------------------------------------------------------------------------------|

♫ Chorus:
 You make me feel mighy real...
G|-----------8---8----10---10--------------------------8---8----10---10-----------------|
D|---8--8-----------------------8/10-8---------8--8-----------------------8/10-8--------|
A|---------6---6----8----8----8--------11-8----------6---6----8----8----8--------11-8---|
E|-6---6-------------------------------------6---6--------------------------------------|

 You make me feel mighy real...
G|-----------8---8----10---10--------------------------8---8----10---10---10------------|
D|---8--8-----------------------8/10-8---------8--8-------------------------------------|
A|---------6---6----8----8----8--------11-8----------6---6----8----8----8----8-7--------|
E|-6---6-------------------------------------6---6--------------------------------------|

♫ Verse 2:
...get home darling and it's nice...
G|---7---7---7---7---------------------7---7---7---7------------------|
D|-------------------8---8---7---7---------------------8---8---7---7--|
A|-5---5---5---5---------------------5---5---5---5--------------------|
E|-----------------6---6---5---5---------------------6---6---5---5----|

...kiss me back and it feels real...
G|---7---7---7---7---------------------7---7---7---7------------------|
D|-------------------8---8---7---7---------------------8---8---7------|
A|-5---5---5---5---------------------5---5---5---5--------------------|
E|-----------------6---6---5---5---------------------6---6---5--------|

♫ Pre-Chorus:
...should...
G|----10---10---10---10---10---10---10---10---10---10---10---10---10---7---5------|
D|-----------------------------------------------------------------------------7--|
A|-/8----8----8----8----8----8----8----8----8----8----8----8----8----5---3--------|
E|---------------------------------------------------------------------------5----|

♫ Chorus:
 You make me feel mighy real...
G|-----------8---8----10---10--------------------------8---8----10---10-----------------|
D|---8--8-----------------------8/10-8---------8--8-----------------------8/10-8--------|
A|---------6---6----8----8----8--------11-8----------6---6----8----8----8--------11-8---|
E|-6---6-------------------------------------6---6--------------------------------------|

 You make me feel mighy real...
G|-----------8---8----10---10--------------------------8---8----10---10---10---10-------|
D|---8--8-----------------------8/10-8---------8--8-------------------------------------|
A|---------6---6----8----8----8--------11-8----------6---6----8----8----8----8----------|
E|-6---6-------------------------------------6---6--------------------------------------|

Post-♫ Chorus:
 Make me feel, mighty real...
G|-----------8---8----10---10--------------------------8---8----10---10----------------|
D|---8--8-----------------------8/10-8---------8--8-----------------------8/10-8-------|
A|---------6---6----8----8----8--------11-8----------6---6----8----8----8--------11-8--|
E|-6---6-------------------------------------6---6-------------------------------------|

Make me feel, mighty real...
G|-----------8---8----10---10--------------------------8---8----10---10---10---10--|
D|---8--8-----------------------8/10-8---------8--8--------------------------------|
A|---------6---6----8----8----8--------11-8----------6---6----8----8----8----8-----|
E|-6---6-------------------------------------6---6---------------------------------|

Break:
 I feel real, I feel real...
G|---10---10---10---10---10---10---10---10-----10---10---10---10---10---10---10---10--|
D|------------------------------------------------------------------------------------|
A|-8----8----8----8----8----8----8----8------8----8----8----8----8----8----8----8-----|
E|------------------------------------------------------------------------------------|

 Real real, I feel real...
G|---10---10---10---10---10---10---10---10-----10---10---10---10---10--------------|
D|----------------------------------------------------------------------7---8---10-|
A|-8----8----8----8----8----8----8----8------8----8----8----8----8-----------------|
E|--------------------------------------------------------------------5---6---8----|

♫ Instrumental:
G|---10---10---10---10---10---10---10---10-----10---10---10---10---10---10---10---10--|
D|------------------------------------------------------------------------------------|
A|-8----8----8----8----8----8----8----8------8----8----8----8----8----8----8----8-----|
E|------------------------------------------------------------------------------------|

G|---10---10---10---10---10---10---10---10-----10---10---10---10---10--------------|
D|----------------------------------------------------------------------7---8---10-|
A|-8----8----8----8----8----8----8----8------8----8----8----8----8-----------------|
E|--------------------------------------------------------------------5---6---8----|

G|---10---10---10---10---10---10---10---10-----10---10---10---10---10---10---10---10--|
D|------------------------------------------------------------------------------------|
A|-8----8----8----8----8----8----8----8------8----8----8----8----8----8----8----8-----|
E|------------------------------------------------------------------------------------|

G|---10---10---10---10---10---10---10---10-----10---10---10---10---10--------------|
D|----------------------------------------------------------------------7---8---10-|
A|-8----8----8----8----8----8----8----8------8----8----8----8----8-----------------|
E|--------------------------------------------------------------------5---6---8----|

G|---10---10---10---10---10---10---10---10-----10---10---10---10---10--------------|
D|----------------------------------------------------------------------7---8---10-|
A|-8----8----8----8----8----8----8----8------8----8----8----8----8-----------------|
E|--------------------------------------------------------------------5---6---8----|


Break:
 Whoo! I feel real. Whoo...
G|---10---10---10---10---10---10---10---10-----10---10---10---10---10---10---10---10--|
D|------------------------------------------------------------------------------------|
A|-8----8----8----8----8----8----8----8------8----8----8----8----8----8----8----8-----|
E|------------------------------------------------------------------------------------|

 I feel real, real real...
G|---10---10---10---10---10---10---10---10-----10---10---10---10---10--------------|
D|----------------------------------------------------------------------7---8---10-|
A|-8----8----8----8----8----8----8----8------8----8----8----8----8-----------------|
E|--------------------------------------------------------------------5---6---8----|

♫ Chorus:
 You make me feel mighy real...
G|-----------8---8----10---10--------------------------8---8----10---10---10---10-|
D|---8--8-----------------------8/10-8---------8--8-------------------------------|
A|---------6---6----8----8----8--------11-8----------6---6----8----8----8----8----|
E|-6---6-------------------------------------6---6--------------------------------|

 You make me feel mighy real...
G|-----------8---8----10---10--------------------------8---8----10---10---------------|
D|---8--8-----------------------8/10-8---------8--8-----------------------8/10-8------|
A|---------6---6----8----8----8--------11-8----------6---6----8----8----8--------11-8-|
E|-6---6-------------------------------------6---6------------------------------------|

 Oh! you make me feel mighty real...
G|-----------8---8----10---10--------------------------8---8----10---10---10---10-|
D|---8--8-----------------------8/10-8---------8--8-------------------------------|
A|---------6---6----8----8----8--------11-8----------6---6----8----8----8----8----|
E|-6---6-------------------------------------6---6--------------------------------|

 You make me feel mighy real...
G|-----------8---8----10---10--------------------------8---8----10---10---------------|
D|---8--8-----------------------8/10-8---------8--8-----------------------8/10-8------|
A|---------6---6----8----8----8--------11-8----------6---6----8----8----8--------11-8-|
E|-6---6-------------------------------------6---6------------------------------------|

♫ Outro:
 Oh I feel real when you touch me...
G|-----------8---8----10---10--------------------------8---8----10---10---------------|
D|---8--8-----------------------8/10-8---------8--8-----------------------8/10-8------|
A|---------6---6----8----8----8--------11-8----------6---6----8----8----8--------11-8-|
E|-6---6-------------------------------------6---6------------------------------------|

 I feel real when you touch me...
G|-----------8---8----10---10--------------------------8---8----10---10---10---10-|
D|---8--8-----------------------8/10-8---------8--8-------------------------------|
A|---------6---6----8----8----8--------11-8----------6---6----8----8----8----8----|
E|-6---6-------------------------------------6---6--------------------------------|


************************************

| /  Slide up
| \  Slide down

************************************

Almost there ...

Sign in to get your own page with links to favourite songs and more. You are just one click away...

Login with Facebook Login with Google