GuitarTabsExplorer icon
GuitarTabsExplorer icon

Log in

Songbook

  • Log in to add and see bookmarks

Last visited songs

    No songs visited yet...

You Belong With Me Ukulele  by Taylor Swift

Chords with lyrics (Ver. 3)

  • Capo on 4th
  • Difficulty: Intermediate
Key: D

🎸 Intro:


A|---------------------------------------------------------------------------|
E|-0p3-3-3---3-5---1---1---1----------0p3-3-3---3-5---1---1---1--------------|
C|---------4-----4---4---4---4-2-0------------4-----4---4---4---4-2-0--------|
G|---------------------------------------------------------------------------|



🎸 Verse :
         D                   A
A|------0-----0---0-----0-----0---0------0-----0---0-----0-----0---0---------|
E|----2-----2---------2-----2----------0-----0---------0-----0---------------|
C|--2-----2-----2---2-----2-----2----1-----1-----1---1-----1-----1-----------|
G|---------------------------------------------------------------------------|
         Em                   G           x2
A|------2-----2---2-----2-----2---2------2-----2---2-----2-----2---2---------|
E|----3-----3---------3-----3----------3-----3---------3-----3---------------|
C|--4-----4-----4---4-----4-----4----2-----2-----2---2-----2-----2-----------|
G|---------------------------------------------------------------------------|
🎸 Pre-Chorus:
       Em        G       A        D
A|-----2-----2---2------2-----2---2------0----0---0------0-----0---0---------|
E|---3-----3----------3-----3----------0----0----------2-----2---------------|
C|-4-----4-----4----2-----2-----2----1----1-----1----2-----2-----2-----------|
G|---------------------------------------------------------------------------|
       Em        G       A        A
A|-----2-----2---2------2-----2---2------0----0---0------0-----0---0---------|
E|---3-----3----------3-----3----------0----0----------0-----0---------------|
C|-4-----4-----4----2-----2-----2----1----1-----1----1-----1-----1-----------|
G|---------------------------------------------------------------------------|


🎸 Bridge: you can play the chords or this finger picking

       Em        G       A        D
A|-----2-----2---2------2-----2---2------0----0---0------0-----0---0---------|
E|---3-----3----------3-----3----------0----0----------2-----2---------------|
C|-4-----4-----4----2-----2-----2----1----1-----1----2-----2-----2-----------|
G|---------------------------------------------------------------------------|
       Em        G       A        D
A|-----2-----2---2------2-----2---2------0----0---0------0-----0---0---------|
E|---3-----3----------3-----3----------0----0----------2-----2---------------|
C|-4-----4-----4----2-----2-----2----1----1-----1----2-----2-----2-----------|
G|---------------------------------------------------------------------------|


🎸 Verse 1:
D                          A
You're on the phone with your girlfriend, she's upset
                      Em
She's going off about something that you said
                     G
'Cause she doesn't get your humor like I do
D                     A
I'm in the room, it's a typical Tuesday night
                        Em
I'm listening to the kind of music she doesn't like
                   G
And she'll never know your story like I do


🎸 Pre-Chorus:
   Em           G
But she wears short skirts
I wear T-shirts
A            D
She's Cheer Captain and I'm on the bleachers
Em                G
Dreaming about the day when you wake up and find
         A
That what you're looking for has been here the whole time


🎸 Chorus:
       D
If you could see that I'm the one who understands you
A                    Em
Been here all along, so why can't you see?
         G          D
You belong with me, you belong with me


🎸 Verse 2:
D                        A
Walking the streets with you and your worn-out jeans
                        Em
I can't help thinking this is how it ought to be
                      G
Laughing on a park bench, thinking to myself

Hey, isn't this easy?
D                            A
And you've got a smile that could light up this whole town
                          Em
I haven't seen it in a while since she brought you down

You say you're fine
I know you better than that
G
Hey, whatcha doing with a girl like that?


🎸 Pre-Chorus:
Em          G
She wears high heels
I wear sneakers
A            D
She's Cheer Captain and I'm on the bleachers
Em            G
Dreaming about the day when you wake up and find
      A
That what you're looking for has been here the whole time


🎸 Chorus:
       D
If you could see that I'm the one who understands you
A                    Em
Been here all along, so why can't you see?
         G
You belong with me
D
Standing by and waiting at your back door
A                     Em
All this time how could you not know, baby?
         G
You belong with me, you belong with me


🎸 Interlude:
D A Em G


🎸 Bridge:
           Em
Oh
I remember you driving to my house
     G
In the middle of the night
     A
I'm the one who makes you laugh
     D
When you know you're 'bout to cry
    Em
And I know your favorite songs
     G
And you tell me 'bout your dreams
     A
Think I know where you belong
     D
Think I know it's with me


🎸 Chorus:

If you could see that I'm the one who understands you
A                    Em
Been here all along, so why can't you see?
         G
You belong with me
D
Standing by and waiting at your back door
A                     Em
All this time how could you not know, baby?
         G          D
You belong with me, you belong with me


🎸 Outro:
        A
You belong with me
               Em
Have you ever thought just maybe
        G
You belong with me?
        D
You belong with me

Other versions of You Belong With Me Ukulele

Alternative guitar chords and tabs for You shouldve said no ukulele by Taylor Swift

VersionType
You belong with me ukuleleChords
You belong with me ukulele (Ver. 2)Chords

[ Privacy | About us ]

Welcome to the guitar community

Why join and log in?
- Get songbook with favourite songs
- Get custom made front page
- Submit chords and tabs
- Submit guitar-cover videos
- Get a lot of thumbs up for your work

Songbook

Last visited songs

Site
Home
Search
Community
Submit chords

Video

No video for this page. Check out how you can submit guitar-cover videos here

Search tabs and chords

Browse by artist

A B C D E F G H I J K L M N O P Q R S T U V W X Y Z #


Menu

Search

Video

Bookmark

Login