GuitarTabsExplorer icon
GuitarTabsExplorer icon

Log in

Songbook

  • Log in to add and see bookmarks

Last visited songs

    No songs visited yet...

You Belong With Me Ukulele  by Taylor Swift

Chords with lyrics (Ver. 2)

Tuning: G C E A (G C E A)

Verse 1:
 F#
A|-----------------------------------------------------------------|
E|-----------------------------------------------------------------|
C|-4-4-2-0-7-4-2-4-0-0-7-7-4-4-2--7-4-2-4-0------------------------|
G|0----------------------------------------------------------------|

A|---------------------------------------------------------------------------|
E|---------------------------------------------------------------------------|
C|-5-4-0-2-4-4-2-0-2-4-------------------------------------------------------|
G|---------------------------------------------------------------------------|

A|-----------------------------------------------------------------|
E|-----------------------------------------------------------------|
C|-4-4-2-0-0-7-4-2-4-0-0-7-7-4-4-2--7-4-2-4-0----------------------|
G|0----------------------------------------------------------------|

A|---------------------------------------------------------------------------|
E|---------------------------------------------------------------------------|
C|-5-4-0-2-4-4-2-0-2-4-------------------------------------------------------|
G|---------------------------------------------------------------------------|
Pre-Chorus:
A|---------------------------------------------------------------------------|
E|---------------------------------------------------------------------------|
C|-0-2-4-2-0-2-4-2-0-2-2-2-0-2-2--4-2-0--------------------------------------|
G|---------------------------------------------------------------------------|

A|---------------------------------------------------------------------------|
E|---------------------------------------------------------------------------|
C|0-2-2-0-4-2-0-0-2-0-2-4-2-2-0-2-4-2-2-0-0-4-2-0-2-0------------------------|
G|---------------------------------------------------------------------------|


Chorus:
A|---------------------------------------------------------------------------|
E|---------------------------------------------------------------------------|
C|0-0-2-4-2-4-2-4-4-4-4-2-0-4-2-4-2-4-2-4-4-2-0-5-4-2-5-3-2-1-1-1-0-0--------|
G|---------------------------------------------------------------------------|


Verse 2:
A|-----------------------------------------------------------------|
E|-----------------------------------------------------------------|
C|-4-4-2-0-7-4-2-4-0-0-7-7-4-4-2--7-4-2-4-2------------------------|
G|0----------------------------------------------------------------|

A|---------------------------------------------------------------------------|
E|---------------------------------------------------------------------------|
C|-4-2-4-2-4-4-4-2-4-5-75-5-7-5-10-7-5---------------------------------------|
G|---------------------------------------------------------------------------|
Pre-Chorus:
A|---------------------------------------------------------------------------|
E|---------------------------------------------------------------------------|
C|-0-2-4-2-0-2-4-2-0-2-2-2-0-2-2--4-2-0--------------------------------------|
G|---------------------------------------------------------------------------|

A|---------------------------------------------------------------------------|
E|---------------------------------------------------------------------------|
C|0-2-2-0-4-2-0-0-2-0-2-4-2-2-0-2-4-2-2-0-0-4-2-0-2-0------------------------|
G|---------------------------------------------------------------------------|


Chorus:
A|---------------------------------------------------------------------------|
E|---------------------------------------------------------------------------|
C|0-0-2-4-2-4-2-4-4-4-4-2-0-4-2-4-2-4-2-4-4-2-0-5-4-2-5-3-2-1-1-1-0-0--------|
G|---------------------------------------------------------------------------|


Bridge:
A|---------------------------------------------------------------------------|
E|---------------------------------------------------------------------------|
C|-3-5-5-7-3-5-7-5-3-0-0-0-5-7-5-3-0-0-0-5-7-5-3-0-0-5--7-5-3-0--------------|
G|---------------------------------------------------------------------------|

A|----------------------------------------------------------|
E|----------------------------------------------------------|
C|-3-5-3-7-5-3-0-0-0-5-7-5-3-0-0-0-5-7-5-3-0-0-0-5-5-5-7-5--|
G|----------------------------------------------------------|


Chorus:
A|---------------------------------------------------------------------------|
E|---------------------------------------------------------------------------|
C|0-0-2-4-2-4-2-4-4-4-4-2-0-4-2-4-2-4-2-4-4-2-0-5-4-2-5-3-2-1-1-1-0-0--------|
G|---------------------------------------------------------------------------|

Other versions of You Belong With Me Ukulele

Alternative guitar chords and tabs for You Belong With Me Ukulele by Taylor Swift

VersionType
You belong with me ukuleleChords
You belong with me ukulele (Ver. 3)Chords

[ Privacy | About us ]

Welcome to the guitar community

Why join and log in?
- Get songbook with favourite songs
- Get custom made front page
- Submit chords and tabs
- Submit guitar-cover videos
- Get a lot of thumbs up for your work

Songbook

Last visited songs

Site
Home
Search
Community
Submit chords

Video

No video for this page. Check out how you can submit guitar-cover videos here

Search tabs and chords

Browse by artist

A B C D E F G H I J K L M N O P Q R S T U V W X Y Z #


Menu

Search

Video

Bookmark

Login