Log in

One click and you are in

Login with Facebook Login with Google

Why sign up and log in

Guitar Tabs Explorer
Taylor Swift bass tabs for Wildest dreams

Bass tabs

Intro + verse 1:
(intro +) He said
G|----------------------------------|
D|----------7-7-7-7-0-0-0-0-0-0-0-0-|
A|----------------------------------|
E|-8-8-8-8--------------------------| x6


Chorus:
Say you'll
G|-----------------2-2-2-2----------|
D|---------0-0-0-0------------------|
A|----------------------------------|
E|-3-3-3-3-----------------8-8-8-8--| x4


Verse 2:
I say
G|----------------------------------|
D|----------7-7-7-7-0-0-0-0-0-0-0-0-|
A|----------------------------------|
E|-8-8-8-8--------------------------| x4


Chorus:
Say you'll
G|-----------------2-2-2-2----------|
D|---------0-0-0-0------------------|
A|----------------------------------|
E|-3-3-3-3-----------------8-8-8-8--| x4


Bridge:
You see me
G|-----------------2-2-2-2----------|
D|---------0-0-0-0------------------|
A|----------------------------------|
E|-3-3-3-3-----------------8-8-8-8--| x4


Chorus:
Say you'll
G|-----------------2-2-2-2----------|
D|---------0-0-0-0------------------|
A|----------------------------------|
E|-3-3-3-3-----------------8-8-8-8--| x8

ⓘ Bass guitar tab for 'Wildest Dreams' by Taylor Swift, a female pop artist from Pennsylvania, USA. Taylor Swift was born in 1989. Taylor Swift is known for her energetic rock/pop music.

Almost there ...

Sign in to get your own page with links to favourite songs and more. You are just one click away...

Login with Facebook Login with Google