Log in

One click and you are in

Login with Facebook Login with Google

Why sign up and log in

Guitar Tabs Explorer
Taylor Swift bass tabs for Welcome to new york

Welcome To New York bass tab by Taylor Swift

Taylor Swift bass tabs for Welcome to new york

Bass tabs

Album: 1989
Track: Welcome to New York

Tuning: Standard (EADG)
Intro
G|----------------|----------------|
D|-5--------------|----------------|
A|---------5------|-3--------------|x6
E|----------------|----------------|


Verse
G|----------------|----------------|
D|-5--------------|----------------|
A|---------5------|-3--------------|x4
E|----------------|----------------|


Chorus
G|----------------|----------------|----------------|----------------|
D|-5-5-5-5--------|----------------|-5-5-5-5-5------|----------------|
A|---------5-5-5-5|-3-3-3-3-3-3-3-3|-----------5-5-5|-3-3-3-3-3-3-3-3|x2
E|----------------|----------------|----------------|----------------|

G|----------------|----------------|----------------|----------------|
D|-5-5-5-5-5-5-5-5|----------------|----------------|----------------|
A|----------------|-5-5-5-5-5-5-5-5|-3-3-3-3-3-3-3-3|-3-3-3-3-3-3-3-3|
E|----------------|----------------|----------------|----------------|

G|----------------|----------------|----------------|----------------|
D|-2-2-2-2-2-2-2-2|----------------|----------------|----------------|
A|----------------|-5-5-5-5-5-5-5-5|-3-3-3-3-3-3-3-3|-3-3-3-3-3-3-3-3|
E|----------------|----------------|----------------|----------------|

G|----------------|----------------|----------------|----------------|
D|-5-5-5-5--------|----------------|-5-5-5-5-5------|----------------|
A|---------5-5-5-5|-3-3-3-3-3-3-3-3|-----------5-5-5|-3-3-3-3-3-3-3-3|
E|----------------|----------------|----------------|----------------|

Verse 2
G|----------------|----------------|----------------|----------------|
D|-5--------------|----------------|-5--------------|----------------|
A|---------5------|-3--------------|-----------5----|-3--------------|x2
E|----------------|----------------|----------------|----------------|


Chorus
G|----------------|----------------|----------------|----------------|
D|-5-5-5-5--------|----------------|-5-5-5-5-5------|----------------|
A|---------5-5-5-5|-3-3-3-3-3-3-3-3|-----------5-5-5|-3-3-3-3-3-3-3-3|x2
E|----------------|----------------|----------------|----------------|

G|----------------|----------------|----------------|----------------|
D|-5-5-5-5-5-5-5-5|----------------|----------------|----------------|
A|----------------|-5-5-5-5-5-5-5-5|-3-3-3-3-3-3-3-3|-3-3-3-3-3-3-3-3|
E|----------------|----------------|----------------|----------------|

G|----------------|----------------|----------------|----------------|
D|-2-2-2-2-2-2-2-2|----------------|----------------|----------------|
A|----------------|-5-5-5-5-5-5-5-5|-3-3-3-3-3-3-3-3|-3-3-3-3-3-3-3-3|
E|----------------|----------------|----------------|----------------|

G|----------------|----------------|----------------|----------------|
D|-5-5-5-5--------|----------------|-5-5-5-5-5------|----------------|
A|---------5-5-5-5|-3-3-3-3-3-3-3-3|-----------5-5-5|-3-3-3-3-3-3-3-3|
E|----------------|----------------|----------------|----------------|


Bridge
G|----------------|----------------|----------------|----------------|
D|-2--------------|----------------|-2--------------|----------------|
A|---------5------|-3--------------|-----------5----|-3--------------|
E|----------------|----------------|----------------|----------------|

G|----------------|----------------|----------------|----------------|----------------|
D|-2--------------|----------------|-5-5-5-5--------|----------------|----------------|
A|---------5------|-3-3-3-3-3-3-3-3|---------5-5-5-5|-3-3-3-3-3-3-3-3|-3-3-3-3-3-3-3-3|
E|----------------|----------------|----------------|----------------|----------------|

Last chorus
G|----------------|----------------|----------------|----------------|
D|-5-5-5-5--------|----------------|-5-5-5-5-5------|----------------|
A|---------5-5-5-5|-3-3-3-3-3-3-3-3|-----------5-5-5|-3-3-3-3-3-3-3-3|x4
ⓘ Bass guitar tab for 'Welcome To New York' by Taylor Swift, a female pop artist from Pennsylvania, USA. Taylor Swift was born in 1989. Taylor Swift is known for her energetic rock/pop music.

Almost there ...

Sign in to get your own page with links to favourite songs and more. You are just one click away...

Login with Facebook Login with Google