Log in

One click and you are in

Login with Facebook Login with Google

Why sign up and log in

Guitar Tabs Explorer
Taylor Swift bass tabs for This is me trying

Bass tabs with lyrics

Tuning: Standard (E A D G)


Intro:

*break*

Verse 1:

 I've been having a hard time adjusting / I had the shiniest wheels, now they're rusting
 I didn't know if you'd care if I came back / I have a lot of regrets about that
 Pulled the car off the road to the lookout / Could've followed my fears all the way down
 And maybe I don't quite know what to say / But I'm here in your doorway

G|-----------------|------------------|-----------------|------------------|
D|-----------------|------------------|-----------------|------------------|
A|-0-0-0-0-0-0-0-0-|-0-0-0-0-0-0-0-0/-|-5-5-5-5-5-5-5-5-|-5-5-5-5-5-5-5-5\-|
E|-----------------|------------------|-----------------|------------------|

G|-----------------|-----------------|-----------------|-----------------|
D|-----------------|-----------------|-----------------|-----------------|
A|-0-0-0-0-0-0-0-0-|-0-0-0-0-0-0-0-0-|-----------------|-----------------|
E|-----------------|-----------------|-4-4-4-4-4-4-4-4-|-4-4-4-4-4-4-4-4-|

G|-----------------|-----------------|------------------|-----------------|
D|-----------------|-----------------|------------------|-----------------|
A|-----------------|-----------------|-/5-5-5-5-5-5-5-5-|-5-5-5-5-5-5-5-5-|
E|-2-2-2-2-2-2-2-2-|-2-2-2-2-2-2-2-2-|------------------|-----------------|

G|-----------------|-----------------|-----------------|-----------------|
D|-----------------|-----------------|-----------------|-----------------|
A|-7-7-7-7-7-7-7-7-|-7-7-7-7-7-7-7-7-|-7-7-7-7-7-7-7-7-|-7-7-7-7-7-7-7-7-|
E|-----------------|-----------------|-----------------|-----------------|


Chorus:

 I just wanted you to know that this is me trying
 I just wanted you to know that this is me trying

G|-----------------|-----------------|-----------------|-----------------|
D|-----------------|-----------------|-----------------|-----------------|
A|-9-9-9-9-9-9-9-9-|-5-5-5-5-5-5-5-5-|-0-0-0-0-0-0-0-0-|-0-0-0-0-0-0-0-0-|
E|-----------------|-----------------|-----------------|-----------------|

G|-----------------|-----------------|-----------------|------------------|
D|-----------------|-----------------|-----------------|------------------|
A|-4-4-4-4-4-4-4-4-|-5-5-5-5-5-5-5-5-|-7-7-7-7-7-7-7-7-|-7-7-7-7-7-7-7-7\-|
E|-----------------|-----------------|-----------------|------------------|


Interlude:

*break for 8 bars*


Verse 2:

 They told me all of my cages were mental / So I got wasted like all my potential
 And my words shoot to kill when I'm mad / I have a lot of regrets about that
 I was so ahead of the curve, the curve became a sphere / Fell behind all my classmates and I ended up here
 Pouring out my heart to a stranger / But I didn't pour the whiskey

G|-----------------|------------------|-----------------|------------------|
D|-----------------|------------------|-----------------|------------------|
A|-0-0-0-0-0-0-0-0-|-0-0-0-0-0-0-0-0/-|-5-5-5-5-5-5-5-5-|-5-5-5-5-5-5-5-5\-|
E|-----------------|------------------|-----------------|------------------|

G|-----------------|-----------------|-----------------|-----------------|
D|-----------------|-----------------|-----------------|-----------------|
A|-0-0-0-0-0-0-0-0-|-0-0-0-0-0-0-0-0-|-----------------|-----------------|
E|-----------------|-----------------|-4-4-4-4-4-4-4-4-|-4-4-4-4-4-4-4-4-|

G|-----------------|-----------------|------------------|-----------------|
D|-----------------|-----------------|------------------|-----------------|
A|-----------------|-----------------|-/5-5-5-5-5-5-5-5-|-5-5-5-5-5-5-5-5-|
E|-2-2-2-2-2-2-2-2-|-2-2-2-2-2-2-2-2-|------------------|-----------------|

G|-----------------|-----------------|-----------------|-----------------|
D|-----------------|-----------------|-----------------|-----------------|
A|-7-7-7-7-7-7-7-7-|-7-7-7-7-7-7-7-7-|-7-7-7-7-7-7-7-7-|-7-7-7-7-7-7-7-7-|
E|-----------------|-----------------|-----------------|-----------------|


Chorus:

 I just wanted you to know that this is me trying
 I just wanted you to know that this is me trying

G|-----------------|-----------------|-----------------|-----------------|
D|-----------------|-----------------|-----------------|-----------------|
A|-9-9-9-9-9-9-9-9-|-5-5-5-5-5-5-5-5-|-0-0-0-0-0-0-0-0-|-0-0-0-0-0-0-0-0-|
E|-----------------|-----------------|-----------------|-----------------|

G|-----------------|-----------------|-----------------|------------------|
D|-----------------|-----------------|-----------------|------------------|
A|-4-4-4-4-4-4-4-4-|-5-5-5-5-5-5-5-5-|-7-7-7-7-7-7-7-7-|-7-7-7-7-7-7-7-7\-|
E|-----------------|-----------------|-----------------|------------------|


Post-Chorus:

 At least I'm trying

G|-----------------|------------------|-----------------|------------------|
D|-----------------|------------------|-----------------|------------------|
A|-0-0-0-0-0-0-0-0-|-0-0-0-0-0-0-0-0/-|-5-5-5-5-5-5-5-5-|-5-5-5-5-5-5-5-5\-|
E|-----------------|------------------|-----------------|------------------|

G|-----------------|-----------------|-----------------|-----------------|
D|-----------------|-----------------|-----------------|-----------------|
A|-0-0-0-0-0-0-0-0-|-0-0-0-0-0-0-0-0-|-----------------|-----------------|
E|-----------------|-----------------|-4-4-4-4-4-4-4-4-|-4-4-4-4-4-4-4-4-|


Bridge:

 And it's hard to be at a party when I feel like an open wound
 It's hard to be anywhere these days when all I want is you
 You're a flashback in a film reel on the one screen in my town

G|-----------------|-----------------|------------------|-----------------|
D|-----------------|-----------------|------------------|-----------------|
A|-----------------|-----------------|-/5-5-5-5-5-5-5-5-|-5-5-5-5-5-5-5-5-|
E|-2-2-2-2-2-2-2-2-|-2-2-2-2-2-2-2-2-|------------------|-----------------|

G|-----------------|-----------------|-----------------|-----------------|
D|-----------------|-----------------|-----------------|-----------------|
A|-7-7-7-7-7-7-7-7-|-7-7-7-7-7-7-7-7-|-7-7-7-7-7-7-7-7-|-7-7-7-7-7-7-7-7-|
E|-----------------|-----------------|-----------------|-----------------|


Chorus:

 And I just wanted you to know that this is me trying (And maybe I don't quite know what to say)
 I just wanted you to know that this is me trying

G|-----------------|-----------------|-----------------|-----------------|
D|-----------------|-----------------|-----------------|-----------------|
A|-9-9-9-9-9-9-9-9-|-5-5-5-5-5-5-5-5-|-0-0-0-0-0-0-0-0-|-0-0-0-0-0-0-0-0-|
E|-----------------|-----------------|-----------------|-----------------|

G|-----------------|-----------------|-----------------|------------------|
D|-----------------|-----------------|-----------------|------------------|
A|-4-4-4-4-4-4-4-4-|-5-5-5-5-5-5-5-5-|-7-7-7-7-7-7-7-7-|-7-7-7-7-7-7-7-7\-|
E|-----------------|-----------------|-----------------|------------------|


Outro:

 At least I'm trying

G|-----------------|------------------|-----------------|------------------|
D|-----------------|------------------|-----------------|------------------|
A|-0-0-0-0-0-0-0-0-|-0-0-0-0-0-0-0/-7-|-0-0-0-0-0-0-0-0-|-0-0-0-0-0-0-0/-7-|
E|-----------------|------------------|-----------------|------------------|

G|-----------------|------------------|-----------------|------------------|
D|-----------------|------------------|-----------------|------------------|
A|-0-0-0-0-0-0-0-0-|-0-0-0-0-0-0-0/-7-|-0-0-0-0-0-0-0-0-|-0-0-0-0-0-0-0/-7-|
E|-----------------|------------------|-----------------|------------------|


************************************

| /  Slide up
| \  Slide down

************************************
ⓘ Bass guitar tab for 'This Is Me Trying' by Taylor Swift, a female pop artist from Pennsylvania, USA. Taylor Swift was born in 1989. Taylor Swift is known for her energetic rock/pop music.

Almost there ...

Sign in to get your own page with links to favourite songs and more. You are just one click away...

Login with Facebook Login with Google