Log in

One click and you are in

Login with Facebook Login with Google

Why sign up and log in

Guitar Tabs Explorer
Taylor Swift bass tabs for The man (Ver. 2)

Bass tabs

Tuning: Standard (E A D G)


Verse 1:

G|--------------------------------|--------------------------------|
D|--------------------------------|--------------------------------|
A|--------------------------------|--------------------------------|
E|1-1---------1-1-----------------|3-3---------3-3-----------------|

G|--------------------------------|--------------------------------|
D|--------------------------------|--------------------------------|
A|3-3---------3-3-----------------|0-0---------0-0-----------------|
E|--------------------------------|--------------------------------|

G|--------------------------------|--------------------------------|
D|--------------------------------|--------------------------------|
A|--------------------------------|--------------------------------|
E|1-1---------1-1-----------------|3-3---------3-3-----------------|

G|--------------------------------|--------------------------------|
D|--------------------------------|--------------------------------|
A|3-3---------3-3-----------------|0-0---------0-0-----------------|
E|--------------------------------|--------------------------------|

G|--------------------------------|--------------------------------|
D|--------------------------------|--------------------------------|
A|--------------------------------|--------------------------------|
E|1-1---------1-1-----------------|3-3---------3-3-----------------|

G|--------------------------------|--------------------------------|
D|--------------------------------|--------------------------------|
A|3-3---------3-3-----------------|0-----------0-0-----------------|
E|--------------------------------|--------------------------------|


Chorus:

G|--------------------------------|--------------------------------|
D|--------------------------------|--------------------------------|
A|--------------------------------|--------------------------------|
E|1-1---------1-------------------|3-3---------3-3-----------------|

G|--------------------------------|--------------------------------|
D|--------------------------------|--------------------------------|
A|3-3---------3-------------------|0-----------0-0-----------------|
E|--------------------------------|--------------------------------|

G|--------------------------------|--------------------------------|
D|--------------------------------|--------------------------------|
A|--------------------------------|--------------------------------|
E|1-1---------1-------------------|3-3---------3-3-----------------|

G|--------------------------------|--------------------------------|
D|--------------------------------|--------------------------------|
A|3-3---------3-3-----------------|0-0---------0-0-----------------|
E|--------------------------------|--------------------------------|

G|--------------------------------|--------------------------------|
D|--------------------------------|--------------------------------|
A|--------------------------------|--------------------------------|
E|1-----------1-------------------|3-----------3-------------------|

G|--------------------------------|--------------------------------|
D|--------------------------------|--------------------------------|
A|3-----------3-------------------|0-----------0-------------------|
E|--------------------------------|--------------------------------|


Verse 2:

G|--------------------------------|--------------------------------|
D|--------------------------------|--------------------------------|
A|--------------------------------|--------------------------------|
E|1-----------1-1-----------------|3-3---------3-3-----------------|

G|--------------------------------|--------------------------------|
D|--------------------------------|--------------------------------|
A|3-3---------3-3-----------------|0-0---------0-0-----------------|
E|--------------------------------|--------------------------------|

G|--------------------------------|--------------------------------|
D|--------------------------------|--------------------------------|
A|--------------------------------|--------------------------------|
E|1-----------1-1-----------------|3-3---------3-3-----------------|

G|--------------------------------|--------------------------------|
D|--------------------------------|--------------------------------|
A|3-3---------3-3-----------------|0-0---------0-0-----------------|
E|--------------------------------|--------------------------------|

G|--------------------------------|--------------------------------|
D|--------------------------------|--------------------------------|
A|--------------------------------|--------------------------------|
E|1-1---------1-1-----------------|3-3---------3-3-----------------|

G|--------------------------------|--------------------------------|
D|--------------------------------|--------------------------------|
A|3-3---------3-3-----------------|0-0---------0-0-----------------|
E|--------------------------------|--------------------------------|


Chorus:

G|--------------------------------|--------------------------------|
D|--------------------------------|--------------------------------|
A|--------------------------------|--------------------------------|
E|1-1---------1-------------------|3-3---------3-3-----------------|

G|--------------------------------|--------------------------------|
D|--------------------------------|--------------------------------|
A|3-3---------3-------------------|0-----------0-------------------|
E|--------------------------------|--------------------------------|

G|--------------------------------|--------------------------------|
D|--------------------------------|--------------------------------|
A|--------------------------------|--------------------------------|
E|1-1---------1-------------------|3-3---------3-3-----------------|

G|--------------------------------|--------------------------------|
D|--------------------------------|--------------------------------|
A|3-3---------3-3-----------------|0-0---------0-------------------|
E|--------------------------------|--------------------------------|

G|--------------------------------|--------------------------------|
D|--------------------------------|--------------------------------|
A|--------------------------------|--------------------------------|
E|1-----------1-------------------|3-----------3-------------------|

G|--------------------------------|--------------------------------|
D|--------------------------------|--------------------------------|
A|3-----------3-------------------|0-----------0-------------------|
E|--------------------------------|--------------------------------|


Bridge:

G|--------------------------------|--------------------------------|
D|--------------------------------|--------------------------------|
A|--------------------------------|--------------------------------|
E|1-1---------1-------------------|3-3---------3-3-----------------|

G|--------------------------------|--------------------------------|
D|--------------------------------|--------------------------------|
A|3-----------3-------------------|0-0---------0-0-----------------|
E|--------------------------------|--------------------------------|

G|--------------------------------|--------------------------------|
D|--------------------------------|--------------------------------|
A|--------------------------------|--------------------------------|
E|1-----------1-1-----------------|3-3---------3-3-----------------|

G|--------------------------------|--------------------------------|
D|--------------------------------|--------------------------------|
A|3-3---------3-3-----------------|0-0---------0-------------------|
E|--------------------------------|--------------------------------|


Chorus:

G|--------------------------------|--------------------------------|
D|--------------------------------|--------------------------------|
A|--------------------------------|--------------------------------|
E|--------------------------------|--------------------------------|

G|--------------------------------|--------------------------------|
D|--------------------------------|--------------------------------|
A|--------------------------------|--------------------------------|
E|--------------------------------|--------------------------------|

G|--------------------------------|--------------------------------|
D|--------------------------------|--------------------------------|
A|--------------------------------|--------------------------------|
E|1-1---------1-------------------|3-3---------3-------------------|

G|--------------------------------|--------------------------------|
D|--------------------------------|--------------------------------|
A|3-3---------3-------------------|0-0---------0-0-----------------|
E|--------------------------------|--------------------------------|

G|--------------------------------|--------------------------------|
D|--------------------------------|--------------------------------|
A|--------------------------------|--------------------------------|
E|1-1---------1-1-----------------|3-3---------3-3-----------------|

G|--------------------------------|--------------------------------|
D|--------------------------------|--------------------------------|
A|3-----------3-------------------|0-----------0-------------------|
E|--------------------------------|--------------------------------|

G|--------------------------------|--------------------------------|
D|--------------------------------|--------------------------------|
A|--------------------------------|--------------------------------|
E|1-1---------1-1-----------------|3-3---------3-------------------|

G|--------------------------------|--------------------------------|
D|--------------------------------|--------------------------------|
A|3-3---------3-------------------|0-0---------0-------------------|
E|--------------------------------|--------------------------------|

G|--------------------------------|--------------------------------|
D|--------------------------------|--------------------------------|
A|--------------------------------|--------------------------------|
E|1-----------1-------------------|3-----------3-------------------|

G|--------------------------------|--------------------------------|
D|--------------------------------|--------------------------------|
A|3-----------3-------------------|0-----------0-------------------|
E|--------------------------------|--------------------------------|

G|--------------------------------|--------------------------------|
D|--------------------------------|--------------------------------|
A|--------------------------------|--------------------------------|
E|1-----------1-------------------|3-----------3-------------------|

G|--------------------------------|--------------------------------|
D|--------------------------------|--------------------------------|
A|3-----------3-------------------|0-----------0-------------------|
E|--------------------------------|--------------------------------|


Outro:

G|--------------------------------|--------------------------------|
D|--------------------------------|--------------------------------|
A|--------------------------------|--------------------------------|
E|--------------------------------|--------------------------------|

G|--------------------------------|--------------------------------|
D|--------------------------------|--------------------------------|
A|--------------------------------|--------------------------------|
E|--------------------------------|--------------------------------|
ⓘ Bass guitar tab for 'The Man (Ver. 2)' by Taylor Swift, a female pop artist from Pennsylvania, USA. Taylor Swift was born in 1989. Taylor Swift is known for her energetic rock/pop music.

Other versions of The Man

The manBass tabs

Almost there ...

Sign in to get your own page with links to favourite songs and more. You are just one click away...

Login with Facebook Login with Google