Log in

One click and you are in

Login with Facebook Login with Google

Why sign up and log in

Guitar Tabs Explorer
Taylor Swift bass tabs for The 1

Bass tabs with lyrics

Tuning: Drop C (C G C F)


Key:    C Major
Intro:

*break*


Verse 1:

*break*

 I'm doing good, I'm on some new shit / Been saying "yes" instead of "no"
 I thought I saw you at the bus stop, I didn't though
 I hit the ground running each night / I hit the Sunday matinée
 You know the greatest films of all time were never made


Pre-Chorus:

 I guess you never know, never know
 And if you wanted me, you really should've showed
 And if you never bleed, you're never gonna grow
 And it's alright now

G|--------|--------|--------|--------|
D|--------|--------|--3-----|--------|
A|-----3--|-----3--|-----3--|-----3--|
C|--5-----|--5-----|--------|--5-----|


Chorus:

 But we were something, don't you think so? / Roaring twenties, tossing pennies in the pool
 And if my wishes came true It would've been you
 In my defense, I have none / For never leaving well enough alone
 But it would've been fun If you would've been the one
 (Ooh)

G|--------|--------|--------|--------|--------|--------|--------|--------|
D|--------|--------|--------|--------|--------|--------|--------|--------|
A|--0--3--|--------|-----3--|--5--3--|--0--3--|--------|-----3--|--5--3--|
C|--------|--5--4--|--2-----|--------|--------|--5--4--|--2-----|--------|


Verse 2: (bass starts at 1:36)

 I have this dream you're doing cool shit / Having adventures on your own
 You meet some woman on the internet and take her home
 We never painted by the numbers, baby / But we were making it count
 You know the greatest loves of all time are over now

G|--------|--------|--------|--------|--------|--------|--------|--------|
D|--------|--------|--------|--------|--------|--------|--------|--------|
A|--------|--------|-----3--|--------|-----3--|--------|--------|--------|
C|--------|--------|--5-----|--5--0--|--2-----|--2--0--|--5--0--|--5--0--|


Pre-Chorus:

*break*

 I guess you never know, never know
 And it's another day waking up alone


Chorus:

 But we were something, don't you think so? / Roaring twenties, tossing pennies in the pool
 And if my wishes came true It would've been you
 In my defense, I have none / For never leaving well enough alone
 But it would've been fun If you would've been the one

G|--------|--------|--------|--------|--------|--------|--------|--------|
D|--------|--------|--------|--------|--------|--------|--------|--------|
A|--0--3--|--------|-----3--|--5--3--|--0-----|--------|-----3--|-----3--|
C|--------|--5--4--|--2-----|--------|-----7--|--5--4--|--2-----|--2-----|


Bridge:

 I, I, I persist and resist the temptation to ask you
 If one thing had been different
 Would everything be different today?

G|--------|--------|--------|--------|
D|--------|--------|--------|--------|
A|--0-----|--------|--------|--------|
C|-----7--|--5--4--|--2--0--|--2--0--|


Outro:

 We were something, don't you think so? / Rosé flowing with your chosen family
 And it would've been sweet If it could've been me
 In my defense, I have none / For digging up the grave another time
 But it would've been fun If you would've been the one
 (Ooh)

G|--------|--------|--------|--------|--------|--------|--------|--------|--------|--------|
D|--------|--------|--------|--------|--------|--------|--------|--------|--------|--------|
A|--0--3--|--------|-----3--|--5--3--|--0-----|--------|--------|--------|--------|--------|
C|--------|--5--4--|--2-----|--------|-----7--|--5--4--|--2--0--|--2--0--|--2--0--|--2--0--|
ⓘ Bass guitar tab for 'The 1' by Taylor Swift, a female pop artist from Pennsylvania, USA. Taylor Swift was born in 1989. Taylor Swift is known for her energetic rock/pop music.

Other versions of The 1

The last timeBass tabs
The manBass tabs
The man (Ver. 2)Bass tabs
The story of usBass tabs
The very first nightBass tabs
The way I loved youBass tabs

Almost there ...

Sign in to get your own page with links to favourite songs and more. You are just one click away...

Login with Facebook Login with Google