Log in

One click and you are in

Login with Facebook Login with Google

Why sign up and log in

Guitar Tabs Explorer
Taylor Swift bass tabs for Tell me why

Bass tabs

TELL ME WHY - TAYLOR SWIFT


Fearless

Tuning: Standard EADG:

The pattern for this song is kinda complicated, so just listen to the song very
carefully to figure it out. I'm pretty sure this is 99.99% accurate... Enjoy, rate and comment! =)
1ST VERSE (0:14)

G|---------------------|
D|---------------------|
A|-3--------5----7--7\-|
E|-----3---3-----------|


CHORUS (0:24)

G|------------------------------------------------------------|
D|------------------------------------------------------------|
A|-3-3--3-3-3--3-----------------5-5--5-5-5--5--7-7--7-7-7--7-|
E|----------------3-3--3-3-3--3-------------------------------|


G|-----------------------------------------------------|
D|-----------------------------------------------------|
A|-3-3--3-3-3--3-----------------5-5--5-5-5--5-------2-|
E|----------------3-3--3-3-3--3----------------0-2-3---|


G|---------------------------------------------------------------------------------|
D|-------------------------------5--5-4-4--2-2--2-2-2--2\--------------------------|
A|-3-3--3-3-3--3--5-5--5-5-5--5---------------------------3-3--3-3-3--3--5-5-5-5-5-|
E|---------------------------------------------------------------------------------|

POST-CHORUS (0:57)

G|----------------0--0-0-----------|
D|------------------0-----5\-------|
A|----------------------------5--5-|
E|-3-3--3-3-3--3----------------5--|


2ND VERSE (1:02)

G|-0--0-----------------------6-7-9--7-5---5-5--5-70----------------------3/4313--|
D|---0-------------------------------------------------5-5\-------------2-------2-|
A|---------5--5----(3)/6-6----------------------------------5---5-5---------------|
E|-----------5-------------------------------------------------3------------------|


CHORUS (1:21)

G|-----------------------------------------------------------|
D|-----------------------------------------------------------|
A|-3-3--3-3-3--3-----------------5-5--5-5-5--5-------3/7-7-7-|
E|----------------3-3--3-3-3--3------------------0-----------|


G|-----------------------------------------------------|
D|-----------------------------------------------------|
A|-3-3--3-3-3--3-----------------5-5--5-5-5--5-------2-|
E|----------------3-3--3-3-3--3----------------0-2-3---|


G|------------------------------------------------------------------------------------|
D|-------------------------------5--5-4-4--2-2--2-2-2--2\-----------------------------|
A|-3-3--3-3-3--3--5-5--5-5-5--5---------------------------3-3--3-3-3---3--5-5--5-5--5-|
E|-------------------------------------------------------------------3----------------|


POST-CHORUS (1:55)

G|---------------------------------|
D|-5-5--5-5-5--5-----5--5/7-5--4-2-|
A|---------------5/7---------------|
E|---------------------------------|


BRIDGE (2:01)

G|-----------------------------------------------------------|
D|-2\--------------------------------------------------------|
A|----3--3/5--------5/(9)-9--7---------3----0-0-0-0--3-3--5\-|
E|-----------3--3/5-------------0--3/5----3------------------|


2ND CHORUS (2:28)

G|---------------------------|
D|---------------------------|
A|-7\(3)-3-------5---------2-|
E|-----------3--3----0-2-3---|


G|-----------------------------------------------------------------------------------|
D|-------------------------------5--5-4-4--2-2--2-2-2--2\----------------------------|
A|-3-3--3-3-3--3--5-5--5-5-5--5---------------------------3-3--3-3-3--3--5-5--5-5--5-|
E|-----------------------------------------------------------------------------------|


POST-CHORUS (2:52)

G|-----------------------------------------------------------------|
D|-5-5--5-5-5--5---------------------------------------------------|
A|---------------5/7--7-7--7-7-7--7--3-3--3-3-3--3--5--5-5\(2)-2-3-|
E|----------------------------------------------------5------------|


OUTRO (3:04)

G|----------------------|
D|----------------------|
A|-3---------5----------|
E|-----3---3------0---3-|


| / slide up
| \ slide down
| h hammer-on
| p pull-off
| ~ vibrato
| + harmonic
ⓘ Bass guitar tab for 'Tell Me Why' by Taylor Swift, a female pop artist from Pennsylvania, USA. Taylor Swift was born in 1989. Taylor Swift is known for her energetic rock/pop music.

Almost there ...

Sign in to get your own page with links to favourite songs and more. You are just one click away...

Login with Facebook Login with Google