Log in

One click and you are in

Login with Facebook Login with Google

Why sign up and log in

Guitar Tabs Explorer
Taylor Swift bass tabs for Sweeter than fiction

Sweeter Than Fiction bass tab by Taylor Swift

Taylor Swift bass tabs for Sweeter than fiction

Bass tabs

0:03 Intro
G|-----------------------------------------------------------------|
D|-----------------------------------------------------------------|
A|-2-2-2-2-2-2-2-2-2-2-2-2-2-2-2-2---------------------------------|
E|---------------------------------2-2-2-2-2-2-2-2-2-2-2-2-2-2-2-2-|

G|-----------------------------------------------------------------|
D|-----------------------------------------------------------------|
A|---------------------------------2-2-2-2-2-2-2-2-----------------|
E|-0-0-0-0-0-0-0-0-0-0-0-0-0-0-0-0-----------------2-2-2-2-2-2-2-2-|

0:17 Verse
G|-----------------------------------------------------------------|
D|-----------------------------------------------------------------|
A|-2-2-2-2-2-2-2-2-2-2-2-2-2-2-2-2---------------------------------|
E|---------------------------------2-2-2-2-2-2-2-2-2-2-2-2-2-2-2-2-|

G|-----------------------------------------------------------------|
D|-----------------------------------------------------------------|
A|---------------------------------2-2-2-2-2-2-2-2-----------------|
E|-0-0-0-0-0-0-0-0-0-0-0-0-0-0-0-0-----------------2-2-2-2-2-2-2-2-|

0:32 Pre-Chorus
G|-----------------------------------------------------------------|
D|-----------------------------------------------------------------|
A|-2-2-2-2-2-2-2-2-2-2-2-2-2-2-2-2---------------------------------|
E|---------------------------------2-2-2-2-2-2-2-2-2-2-2-2-2-2-2-2-|

G|-----------------------------------------------------------------|
D|-----------------------------------------------------------------|
A|---------------------------------2-2-2-2-2-2-2-2-----------------|
E|-0-0-0-0-0-0-0-0-0-0-0-0-0-0-0-0-----------------2-2-2-2---------|

0:47 Chorus
G|-----------------------------------------------------------------|
D|-----------------------------------------------------------------|
A|-4-4-4-4-4-4-4-4-4-4-4-4-4-4-4-4---------------------------------|
E|---------------------------------4-4-4-4-4-4-4-4-4-4-4-4-4-4-4-4-|

G|-----------------------------------------------------------------|
D|-----------------------------------------------------------------|
A|---------------------------------1-1-1-1-1-1-1-1-----------------|
E|-2-2-2-2-2-2-2-2-2-2-2-2-2-2-2-2-----------------4-4-4-4-4-4-4-4-|

1:02 Verse
G|-----------------------------------------------------------------|
D|-----------------------------------------------------------------|
A|-2-2-2-2-2-2-2-2-2-2-2-2-2-2-2-2---------------------------------|
E|---------------------------------2-2-2-2-2-2-2-2-2-2-2-2-2-2-2-2-|

G|-----------------------------------------------------------------|
D|-----------------------------------------------------------------|
A|---------------------------------2-2-2-2-2-2-2-2-----------------|
E|-0-0-0-0-0-0-0-0-0-0-0-0-0-0-0-0-----------------2-2-2-2-2-2-2-2-|

1:16
G|-----------------------------------------------------------------|
D|-----------------------------------------------------------------|
A|-2-2-2-2-2-2-2-2-2-2-2-2-2-2-2-2---------------------------------|
E|---------------------------------2-2-2-2-2-2-2-2-2-2-2-2-2-2-2-2-|

G|-----------------------------------------------------------------|
D|-----------------------------------------------------------------|
A|---------------------------------2-2-2-2-2-2-2-2-----------------|
E|-0-0-0-0-0-0-0-0-0-0-0-0-0-0-0-0-----------------2-2-2-2---------|

1:30 Chorus/Bridge x3
G|------------------------------------------------------------------|
D|o-----------------------------------------------------------------|
A|o-4-4-4-4-4-4-4-4-4-4-4-4-4-4-4-4---------------------------------|
E|----------------------------------4-4-4-4-4-4-4-4-4-4-4-4-4-4-4-4-|

G|------------------------------------------------------------------|
D|-----------------------------------------------------------------o|
A|---------------------------------1-1-1-1-1-1-1-1-----------------o|
E|-2-2-2-2-2-2-2-2-2-2-2-2-2-2-2-2-----------------4-4-4-4-4-4-4-4--|

2:13 x2
G|----------------------------------------------------------------|
D|o---------------------------------------------------------------|
A|o-4~------------------------------1~----------------------------|
E|----------------------------------------------------------------|

G|----------------------------------------------------------------|
D|---------------------------------------------------------------o|
A|---------------------------------------------------------------o|
E|-2~------------------------------4~-----------------------------|

2:41
G|-----------------------------------------------------------------|
D|-----------------------------------------------------------------|
A|-4-4-4-4-4-4-4-4-4-4-4-4-4-4-4-4-1-1-1-1-1-1-1-1-1-1-1-1-1-1-1-1-|
E|-----------------------------------------------------------------|

G|-----------------------------------------------------------------|
D|-----------------------------------------------------------------|
A|-----------------------------------------------------------------|
E|-2-------------------------------4-------------------------------|

2:56
G|-----------------------------------------------------------------|
D|-----------------------------------------------------------------|
A|-4-4-4-4-4-4-4-4-4-4-4-4-4-4-4-4---------------------------------|
E|---------------------------------4-4-4-4-4-4-4-4-4-4-4-4-4-4-4-4-|

G|-----------------------------------------------------------------|
D|-----------------------------------------------------------------|
A|---------------------------------4-4-4-4-4-4-4-4-----------------|
E|-2-2-2-2-2-2-2-2-2-2-2-2-2-2-2-2---------------------------------|

3:10 Chorus x3
G|-----------------------------------------------------------------|
D|o----------------------------------------------------------------|
A|o-4-4-4-4-4-4-4-4-4-4-4-4-4-4-4-4--------------------------------|
E|---------------------------------4-4-4-4-4-4-4-4-4-4-4-4-4-4-4-4-|

G|------------------------------------------------------------------|
D|-----------------------------------------------------------------o|
A|---------------------------------1-1-1-1-1-1-1-1-----------------o|
E|-2-2-2-2-2-2-2-2-2-2-2-2-2-2-2-2-----------------4-4-4-4-4-4-4-4--|

ⓘ Bass guitar tab for 'Sweeter Than Fiction' by Taylor Swift, a female pop artist from Pennsylvania, USA. Taylor Swift was born in 1989. Taylor Swift is known for her energetic rock/pop music.

Almost there ...

Sign in to get your own page with links to favourite songs and more. You are just one click away...

Login with Facebook Login with Google