Log in

One click and you are in

Login with Facebook Login with Google

Why sign up and log in

Guitar Tabs Explorer
Taylor Swift bass tabs for Superman

Bass tabs

0:03 Intro
G|-------------------------------------------------------------------|
D|o-----------------------------------------------------------------o|
A|o---------------------------------0-0-0-0-0-0-0-0-3-3-3-3-3-2-----o|
D|--5-5-5-5-5-5-5-5-4-4-4-4-4-4-4-5-----------------------------5-4--|
  1 + 2 + 3 + 4 + 1 + 2 + 3 + 4 + 1 + 2 + 3 + 4 + 1 + 2 + 3 + 4 +

0:18 Verse
G|-----------------------------------------------------------------|
D|-----------------------------------------------------------------|
A|---------------------------------0-0-0-0-0-0-0-0-3-3-3-3-3-3-3-3-|
D|-5---5---5-5-5-5-4---4---4-4-4-5---------------------------------|
  1 + 2 + 3 + 4 + 1 + 2 + 3 + 4 + 1 + 2 + 3 + 4 + 1 + 2 + 3 + 4 +

G|-----------------------------------------------------------------|
D|-----------------------------------------------------------------|
A|---------------------------------0-0-0-0-0-0-0-0-3---------------|
D|-5-5-5-5-5-5-5-5-4-4-4-4-4-4-4-5---------------------------------|
  1 + 2 + 3 + 4 + 1 + 2 + 3 + 4 + 1 + 2 + 3 + 4 + 1 + 2 + 3 + 4 +

G|-----------------------------------------------------------------|
D|-----------------------------------------------------------------|
A|---------------------------------0-0-0-0-0-0-0-0-3-3-3-3-3-3-3-3-|
D|-5-5-5-5-5-5-5-5-4-4-4-4-4-4-4-5---------------------------------|
  1 + 2 + 3 + 4 + 1 + 2 + 3 + 4 + 1 + 2 + 3 + 4 + 1 + 2 + 3 + 4 +

G|-----------------------------------------------------------------|
D|-----------------------------------------------------------------|
A|---------------------------------0-0-0-0-0-0-0-0-3-3-3-3-3-3-3-3-|
D|-5-5-5-5-5-5-5-5-4-4-4-4-4-0-4-0---------------------------------|
  1 + 2 + 3 + 4 + 1 + 2 + 3 + 4 + 1 + 2 + 3 + 4 + 1 + 2 + 3 + 4 +

0:47 Pre-Chorus
G|-----------------------------------------------------------------|
D|-------------------------------------------------5---0---4-------|
A|-5---5-5-5---5-5-7---7-7-7-7-7-7-3-3-3-3-3-3-3-3-------------5---|
D|-----------------------------------------------------------------|
  1 + 2 + 3 + 4 + 1 + 2 + 3 + 4 + 1 + 2 + 3 + 4 + 1 + 2 + 3 + 4 +

G|-----------------------------------------------------------------|
D|-----------------------------------------------------------------|
A|-7-7-7-7-7-7-7-7-3-3-3-3-3-3-3-3-5-5-5-5-5-5-5-5/17171717171717--|
D|-----------------------------------------------------------------|
  1 + 2 + 3 + 4 + 1 + 2 + 3 + 4 + 1 + 2 + 3 + 4 + 1 + 2 + 3 + 4 +

1:02 Chorus
G|-----------------------------------------------------------------|
D|-----------------------------------------------------------------|
A|---------------3-5-5-5-5-5-5-5---0-0-0-0-0-0-0-0-3-3-3-3-3---3---|
D|-5-5-5-5-5-5-5-----------------5---------------------------5---5-|
  1 + 2 + 3 + 4 + 1 + 2 + 3 + 4 + 1 + 2 + 3 + 4 + 1 + 2 + 3 + 4 +

G|-----------------------------------------------------------------|
D|-----------------------------------------------------------------|
A|---------------3-5-5-5-5-5-5-5---0-0-0-0-0-0-0-0-3---3---5---5---|
D|-5-5-5-5-5-5-5-----------------5-------------------5---5---7---7-|
  1 + 2 + 3 + 4 + 1 + 2 + 3 + 4 + 1 + 2 + 3 + 4 + 1 + 2 + 3 + 4 +

G|-----------------------------------------------------------------|
D|-----------------------------------------------------------------|
A|---------------3-5-5-5-5-5-5-5---0-0-0-0-0-0-0-0-3-3-3-3-3---3---|
D|-5-5-5-5-5-5-5-----------------5---------------------------5---5-|
  1 + 2 + 3 + 4 + 1 + 2 + 3 + 4 + 1 + 2 + 3 + 4 + 1 + 2 + 3 + 4 +

G|-----------------------------------------------------------------|
D|-----------------------------------------------------------------|
A|---------------3-5-5-5-5-5-5-5---0-0-0-0-0-0-0-0-3---------------|
D|-5-5-5-5-5-5-5-----------------5-----------------------------12\-|
  1 + 2 + 3 + 4 + 1 + 2 + 3 + 4 + 1 + 2 + 3 + 4 + 1 + 2 + 3 + 4 +

1:31 Interlude
G|-----------------------------------------------------------------|
D|-----------------------------------------------------------------|
A|---------------------------------0-0-0-0-0-0-0-0-3-3-3-3-3-2-----|
D|-5-5-5-5-5-5-5-5-4-4-4-4-4-0-4-0-----------------------------5-4-|
  1 + 2 + 3 + 4 + 1 + 2 + 3 + 4 + 1 + 2 + 3 + 4 + 1 + 2 + 3 + 4 +

1:38 Verse
G|-----------------------------------------------------------------|
D|-----------------------------------------------------------------|
A|---------------------------------0-0-0-0-0-0-0-0-3-3-3-3-3-3-3-3-|
D|-5---5---5-5-5-5-4---4---4-4-4-5---------------------------------|
  1 + 2 + 3 + 4 + 1 + 2 + 3 + 4 + 1 + 2 + 3 + 4 + 1 + 2 + 3 + 4 +

G|-----------------------------------------------------------------|
D|-5-5-5-5-5-5-5-5-4-4-4-4-4-4-4-4-7-7-5-5-------------------------|
A|-----------------------------------------7-7-5-5-3-3-2-2-3-3-5-5-|
D|-----------------------------------------------------------------|
  1 + 2 + 3 + 4 + 1 + 2 + 3 + 4 + 1 + 2 + 3 + 4 + 1 + 2 + 3 + 4 +

G|-----------------------------------------------------------------|
D|-----------------------------------------------------------------|
A|---------------------------------0-0-0-0-0-0-0-0-3-3-3-3-3-3-3-3-|
D|-5-5-5-5-5-5-5-0-4-4-4-4-4-4-4-5---------------------------------|
  1 + 2 + 3 + 4 + 1 + 2 + 3 + 4 + 1 + 2 + 3 + 4 + 1 + 2 + 3 + 4 +

G|-----------------------------------------------------------------|
D|-----------------------------------------------------------------|
A|---------------------------------0-0-0-0-0-0-0-0-3-3-3-3-3---3-5-|
D|-5-5-5-5-5-5-5-0-4-4-4-4-4-4-4-5---------------------------5-----|
  1 + 2 + 3 + 4 + 1 + 2 + 3 + 4 + 1 + 2 + 3 + 4 + 1 + 2 + 3 + 4 +

2:07 Pre-Chorus
G|-----------------------------------------------------------------|
D|-------------------------------------------------5---0---4-------|
A|-5---5-5-5-5-5-5-7-7-7-7-7-7-7-7-3-3-3-3-3-3-3-3-------------5---|
D|-----------------------------------------------------------------|
  1 + 2 + 3 + 4 + 1 + 2 + 3 + 4 + 1 + 2 + 3 + 4 + 1 + 2 + 3 + 4 +

G|-----------------------------------------------------------------|
D|-----------------------------------------------------------------|
A|-7-7-7-7-7-7-7-7-3-3-3-3-3-3-3-3-5-5-5-5-5-5-5-5/17171717171717--|
D|-----------------------------------------------------------------|
  1 + 2 + 3 + 4 + 1 + 2 + 3 + 4 + 1 + 2 + 3 + 4 + 1 + 2 + 3 + 4 +

2:21 Chorus
G|-----------------------------------------------------------------|
D|-----------------------------------------------------------------|
A|---------------3-5-5-5-5-5-5-5---0-0-0-0-0-0-0-0-3-3-3-3-3---3---|
D|-5-5-5-5-5-5-5-----------------5---------------------------5---5-|
  1 + 2 + 3 + 4 + 1 + 2 + 3 + 4 + 1 + 2 + 3 + 4 + 1 + 2 + 3 + 4 +

G|-----------------------------------------------------------------|
D|---------------------------------7-7-5-5-------------------------|
A|---------------3-5-5-5-5-5-5-5-----------7-7-5-5-3---3---5---5---|
D|-5-5-5-5-5-5-5-----------------5-------------------5---5---7---7-|
  1 + 2 + 3 + 4 + 1 + 2 + 3 + 4 + 1 + 2 + 3 + 4 + 1 + 2 + 3 + 4 +

G|-----------------------------------------------------------------|
D|-----------------------------------------------------------------|
A|---------------3-5-5-5-5-5-5-5---0-0-0-0-0-0-0-0-3-3-3-3-3---3---|
D|-5-5-5-5-5-5-5-----------------5---------------------------5---5-|
  1 + 2 + 3 + 4 + 1 + 2 + 3 + 4 + 1 + 2 + 3 + 4 + 1 + 2 + 3 + 4 +

G|-----------------------------------------------------------------|
D|-------------------------------------------------------------7\--|
A|---------------3-5-5-5-5-5-5-5---0-0-0-0-0-0-0-0-3---3---5-5-----|
D|-5-5-5-5-5-5-5-----------------5-------------------5---5---------|
  1 + 2 + 3 + 4 + 1 + 2 + 3 + 4 + 1 + 2 + 3 + 4 + 1 + 2 + 3 + 4 +

2:51 Bridge
G|-----------------------------------------------------------------|
D|-----------------------------------------------------------------|
A|---------------------------------0-0-0-0-0-0-0-0-3---3---3---3---|
D|-5-5-5-5-----5-5-5-5-----5---5---------------------5---5---5---5-|
  1 + 2 + 3 + 4 + 1 + 2 + 3 + 4 + 1 + 2 + 3 + 4 + 1 + 2 + 3 + 4 +

G|-----------------------------------------------------------------|
D|-----------------------------------------------------------------|
A|-----------------5-5-5-5-5-5-5-5-0-0-0-0-----3-3-3-3-----3---3---|
D|-5-5-5-5-5-5-5-5-------------------------------------------------|
  1 + 2 + 3 + 4 + 1 + 2 + 3 + 4 + 1 + 2 + 3 + 4 + 1 + 2 + 3 + 4 +

G|-----------------------------------------------------------------|
D|-----------------------------3-5-7-7-7-7-7-5---------------------|
A|---------------3-5-5-5-5-5-5-----------------7-5-3-3-3-3-3-3-2-0-|
D|-5-5-5-5-5-5-5---------------------------------------------------|
  1 + 2 + 3 + 4 + 1 + 2 + 3 + 4 + 1 + 2 + 3 + 4 + 1 + 2 + 3 + 4 +

G|-----------------------------------------------------------------|
D|---------------5-5---0-------------------------------------------|
A|-----------3-5-----------0-------------------3-3---3---3---3---5-|
D|-5---5-5-5-------------------5---7-7-5-7\\-------5-------5---5---|
  1 + 2 + 3 + 4 + 1 + 2 + 3 + 4 + 1 + 2 + 3 + 4 + 1 + 2 + 3 + 4 +

G|--------------------- - - - -------------------------------------|
D|-----------------------------------------------------------------|
A|-5-5-5-5-5-5-5-5-----------------3-------------------------------|
D|-----------------------------------------------------------------|
  1 + 2 + 3 + 4 + 1 + 2 + 3 + 4 + 1 + 2 + 3 + 4 + 1 + 2 + 3 + 4 +

Rest

3:35 Pre-Chorus
G|---------------------------------|
D|---------------------------------|
A|-5-5-5-5-5-5-5-5-5-5-5-5-5-5-5-5-|
D|---------------------------------|
  1 + 2 + 3 + 4 + 1 + 2 + 3 + 4 +

3:38 Chorus
G|-----------------------------------------------------------------|
D|-----------------------------------------------------------------|
A|---------------3-5-5-5-5-5-5-5---0-0-0-0-0-0-0-0-3-3-3-3-3---3---|
D|-5-5-5-5-5-5-5-----------------5---------------------------5---5-|
  1 + 2 + 3 + 4 + 1 + 2 + 3 + 4 + 1 + 2 + 3 + 4 + 1 + 2 + 3 + 4 +

G|-----------------------------------------------------------------|
D|--------------------------------/7-7-5-5-------------------------|
A|---------------3-5-5-5-5-5-5-5-----------7---5---3-3-3-3-5---5---|
D|-5-5-5-5-5-5-5-----------------5---------------------------------|
  1 + 2 + 3 + 4 + 1 + 2 + 3 + 4 + 1 + 2 + 3 + 4 + 1 + 2 + 3 + 4 +

G|------------------------------------------------/5-5-4-4---------|
D|---------------------------------------------------------5-5-0---|
A|---------------3-5-5-5-5-5-5-5---0-0-0-0-0-0-0-0---------------3-|
D|-5-5-5-5-5-5-5-----------------5---------------------------------|
  1 + 2 + 3 + 4 + 1 + 2 + 3 + 4 + 1 + 2 + 3 + 4 + 1 + 2 + 3 + 4 +

G|-----------------------------------------------------------------|
D|---------------------------------7-7-5-5-------------------------|
A|---------------3-5-5-5-5-5-5-5-----------7-7-5-5-3---2---3---5---|
D|-5-5-5-5-5-5-5-----------------5---------------------------------|
  1 + 2 + 3 + 4 + 1 + 2 + 3 + 4 + 1 + 2 + 3 + 4 + 1 + 2 + 3 + 4 +

4:07 Outro
G|-----------------------------------------------------------------|
D|-----------------------------------------------------------------|
A|---------------3-5-5-5-5-------0-0-0-0-0-0-0-0-0-3-3-3-3-3---3---|
D|-5-5-5-5-5-5-5-----------2-3-5-----------------------------5---5-|
  1 + 2 + 3 + 4 + 1 + 2 + 3 + 4 + 1 + 2 + 3 + 4 + 1 + 2 + 3 + 4 +

G|-----------------------------------------------------------------|
D|--------------------------------/7-7-7-7-7-5---------------------|
A|---------------3-5-5-5-5-5-5-5-5-------------7-5-3-3-3-3-5-5-5-5-|
D|-5-5-5-5-5-5-5---------------------------------------------------|
  1 + 2 + 3 + 4 + 1 + 2 + 3 + 4 + 1 + 2 + 3 + 4 + 1 + 2 + 3 + 4 +

G|-----------------------------------------------------------------|
D|-----------------------------------------------------------------|
A|-----------------------------------------------------------------|
D|-5---------------------------------------------------------------|
  1 + 2 + 3 + 4 + 1 + 2 + 3 + 4 + 1 + 2 + 3 + 4 + 1 + 2 + 3 + 4 +
ⓘ Bass guitar tab for 'Superman' by Taylor Swift, a female pop artist from Pennsylvania, USA. Taylor Swift was born in 1989. Taylor Swift is known for her energetic rock/pop music.

Almost there ...

Sign in to get your own page with links to favourite songs and more. You are just one click away...

Login with Facebook Login with Google