GuitarTabsExplorer icon
GuitarTabsExplorer icon

Log in

Songbook

  • Log in to add and see bookmarks

Last visited songs

  • No songs visited yet...
Style by Taylor Swift

Bass tabs

Tuning: Standard tuning


Style by Taylor Swift
From her album 1989.

Great fun to play on bass! Enjoy!

Tuning: Standard (EADG)

Intro
G|--------------------------------|--------------------------------|
D|--------------------------------|--------------------------------|
A|--------------------------------|--------------------------------|
E|--------------------------------|--------------------------------|

G|--------------------------------|--------------------------------|
D|--------------------------------|--------------------------------|
A|-2-2-2-2-2-2-2-2-2-2-2-2-2-2-2-2|--------------------------------|
E|--------------------------------|-3-3-3-3-3-3-3-3-3-3-3-3-3-3-3-3|

Verse 1
G|--------------------------------|--------------------------------|
D|--------------------------------|--------------------------------|
A|-2-2-2-2-2-2-2-2-2-2-2-2-2-2-2-2|--------------------------------| x3
E|--------------------------------|-3-3-3-3-3-3-3-3-3-3-3-3-3-3-3-3|

G|--------------------------------|--------------------------------|
D|--------------------------------|--------------------------------|
A|--------------------------------|--------------------------------|
E|--------------------------------|--------------------------------|

Chorus
G|--------------------------------|--------------------------------|
D|--------------------------------|--------------------------------|
A|-5-5-5-5-5-5-5-5-5-5-5-5--------|--------------------------------| x3
E|-------------------------5-5-5-5|-3-3-3-3-3-3-3-3-3-3-3-3-5-5-5-5|

G|--------------------------------|--------------------------------|
D|--------------------------------|--------------------------------|
A|-2-2-2-2-2-2-2-2-2-2-2-2--------|--------------------------------|
E|-------------------------5-5-5-5|-3-3-3-3-3-3-3-3-3-3-3-3-5-5-5-5|

Verse 2
G|--------------------------------|--------------------------------|
D|--------------------------------|--------------------------------|
A|-2-2-2-2-2-2-2-2-2-2-2-2-2-2-2-2|--------------------------------| x3
E|--------------------------------|-3-3-3-3-3-3-3-3-3-3-3-3-3-3-3-3|

G|--------------------------------|--------------------------------|
D|--------------------------------|--------------------------------|
A|--------------------------------|--------------------------------|
E|--------------------------------|--------------------------------|

Chorus
G|--------------------------------|--------------------------------|
D|--------------------------------|--------------------------------|
A|-5-5-5-5-5-5-5-5-5-5-5-5--------|--------------------------------| x3
E|-------------------------5-5-5-5|-3-3-3-3-3-3-3-3-3-3-3-3-5-5-5-5|

G|--------------------------------|--------------------------------|
D|--------------------------------|--------------------------------|
A|-2-2-2-2-2-2-2-2-2-2-2-2--------|--------------------------------|
E|-------------------------5-5-5-5|-3-3-3-3-3-3-3-3-3-3-3-3-5-5-5-5|

G|--------------------------------|--------------------------------|
D|--------------------------------|--------------------------------|
A|-5-5-5-5-5-5-5-5-5-5-5-5--------|--------------------------------| x3
E|-------------------------5-5-5-5|-3-3-3-3-3-3-3-3-3-3-3-3-5-5-5-5|

G|--------------------------------|--------------------------------|
D|--------------------------------|--------------------------------|
A|-2-2-2-2-2-2-2-2-2-2-2-2--------|--------------------------------|
E|-------------------------5-5-5-5|-3-3-3-3-3-3-3-3-3-3-3-3-5-5-5-5|

[ Privacy | About us ]

Welcome to the guitar community

Why join and log in?
- Get songbook with favourite songs
- Get custom made front page
- Submit chords and tabs
- Submit guitar-cover videos
- Get a lot of thumbs up for your work

Songbook

Last visited songs

Site
Home
Search
Community
Submit chords

Video

No video for this page. Check out how you can submit guitar-cover videos here

Search tabs and chords

Browse by artist

A B C D E F G H I J K L M N O P Q R S T U V W X Y Z #


Menu

Search

Video

Bookmark

Login