Log in

One click and you are in

Login with Facebook Login with Google

Why sign up and log in

Guitar Tabs Explorer
Taylor Swift tabs for Style (Ver. 2)

Intro

Here is a guide to the intro of the song.
use staccato on the single notes
and keep an eye for the speed changes
E---------------------------------------------------
B-----3--3--3--3--3-3-----------3-3-----------------
G--4-------------------4-4-4---------4-4--4-4-4-4---
D--4------------------------------------------------
A--2------------------------------------------------
E---------------------------------------------------

A chord diagramB minorBm

E---------------------------------------------------
B-----3--3--3--3--3-3-----------3-3-----------------
G--4-------------------4-4-4---------4-4--4-4-4-4---
D--5------------------------------------------------
A--5------------------------------------------------
E--3------------------------------------------------

A chord diagramG+G

you cud use a capo on 2 as well to make it easier,
ⓘ This is the 2nd version of guitar tab for 'Style' by Taylor Swift, a female pop artist from Pennsylvania, USA. Taylor Swift was born in 1989. Taylor Swift is known for her energetic rock/pop music.

Other versions of Style

Other alternative guitar chords and tabs for the song Style intro by Taylor Swift
StyleTabs
Style introTabs

Almost there ...

Sign in to get your own page with links to favourite songs and more. You are just one click away...

Login with Facebook Login with Google