Log in

One click and you are in

Login with Facebook Login with Google

Why sign up and log in

Guitar Tabs Explorer
Taylor Swift tabs for Star spangled banner

Guitar tabs

Star Spangled Banner

Performed by Taylor Swift at the 2008 World Series


It's played with a capo on the 2nd fret.
A chord diagramE MajorE||--------------------|--------------------|
A chord diagramBB||-----------3--------|-----------3--------|
A chord diagramG+G||-----2--2-----2--2--|-----2--2-----2--2--|
A chord diagramD MajorD||--0-----------------|--0-----------------|
A chord diagramA augmentedA||--------------------|--------------------|
A chord diagramE MajorE||--------------------|--------------------|
                                   Oh,


-----------------------------|-----------------------------|
-----------3--------------3--|-----------3-----------------|
-----2--2-----2--2-----2-----|-----2--2-----2--2-----2--0--|
--0-----------------0--------|--0-----------------0--------|
-----------------------------|-----------------------------|
-----------------------------|-----------------------------|
  Say      can      you         see               by    the


-----------------------------|-----------------------------|
-----------0-----------------|--------3--3--------------3--|
--------0-----0-----------0--|-----2--------2--2-----2-----|
-----2-----------2-----2-----|--0-----------------0--------|
-----------------------------|-----------------------------|
--0-----------------0--------|-----------------------------|
  dawn's   ear  -   ly    light                   What so


-----------------------------|-----------------------------|
--------3--3-----------3-----|-----------2-----------------|
-----2--------2--2-----------|--------2-----2--2--------2--|
--0-----------------0-----0--|-----2-----------------2-----|
-----------------------------|--0-----------------0--------|
-----------------------------|-----------------------------|
  proud     -    ly we    hailed                 at    the

-----------------------------|-----------------------------|
-----------3--------------3--|--------3--3--------------3--|
-----2--2-----2--2-----2-----|-----2--------2--2-----2-----|
--0-----------------0--------|--0-----------------0--------|
-----------------------------|-----------------------------|
-----------------------------|-----------------------------|
  twi   -  light's  last        gleam -  ing?     Whose broad


-----------------------------|-----------------------------|
--3--------------3--------3--|-----------3--------------3--|
-----2--------2--------2-----|-----2--2-----2--2-----2-----|
--------0-----------0--------|--0-----------------0--------|
-----------0-----------------|-----------------------------|
-----------------------------|-----------------------------|
  stripes  and      bright      stars             thru  the


-----------------------------|-----------------------------|
-----------0-----------------|-----------3--------------3--|
--------0-----0-----------0--|-----2--2-----2--2-----2-----|
-----2-----------2-----2-----|--0-----------------0--------|
--2-----------------2--------|-----------------------------|
-----------------------------|-----------------------------|
  per  -   il   -   ous         fight,            O'er  the


-----------------------------|-----------------------------|
-----------3-----------------|-----------2--------------2--|
-----2--2-----2--2-----2--0--|--------2-----2--2-----2-----|
--0-----------------0--------|-----2-----------------------|
-----------------------------|--0-----------------0--------|
-----------------------------|-----------------------------|
  ramp  -  arts     we    watched                 were  so


-----------------------------|------------------------|
-----------3--------------3--|--------3--3------------|
-----2--2-----2--2-----2-----|-----2------------------|
--0-----------------0--------|--0---------------------|
-----------------------------|------------------------|
-----------------------------|------------------------|
  gall  -  ant   -  ly          streaming?      And the


----------------------------|----------------------------|
--3--------3--------3-------|--3--------3--------3----0--|
--2--2--2--2--2--2--2----2--|--2--2--2--2--2--2--2----0--|
--0--0--0--0--0--0--0----0--|--0--0--0--0--0--0--0----0--|
--0--0--0--0--0--0--0----0--|--0--0--0--0--0--0--0-------|
----------------------------|----------------------------|
  rock  -  et's     red  glare,                  the bombs


----------------------------|----------------------------|
--2--------2--------2-------|--2--------2--------2-------|
--2--2--2--2--2--2--2----2--|--2--2--2--2--2--2--2----2--|
--2--2--2--2--2--2--2----2--|--2--2--2--2--2--2--2----2--|
--0--0--0--0--0--0--0----0--|--0--0--0--0--0--0--0----0--|
----------------------------|----------------------------|
  burst -  ing      in   air,                    Gave


-----------------------------|-----------------------------|
--3--------3--------3-----0--|--2--------2--------2-----0--|
--2--2--2--2--2--2--2--2--0--|--2--2--2--2--2--2--2--2--0--|
--0--0--0--0--0--0--0--0--0--|--2--2--2--2--2--2--2--2--0--|
--0--0--0--0--0--0--0--0-----|--0--0--0--0--0--0--0--0-----|
-----------------------------|-----------------------------|
  proof    through  the   night                   that our


--------------------0------|-----------------------------|
--3--------3--------0------|--2--------2--------2--------|
--2--2--2--2--2--2--1------|--2--2--2--2--2--2--2--2--2--|
--0--0--0--0--0--0--2------|--2--2--2--2--2--2--2--2--2--|
--0--0--0--0--0--0--2------|--0--0--0--0--0--0--0--0--0--|
---------------------------|-----------------------------|
  flag     was      still     there.            Oh,


-----------------------------|-----------------------------|
--3--------3--------3--------|-----------------------------|
--2--2--2--2--2--2--2--2--2--|-----------------------------|
--0--0--0--0--0--0--0--0--0--|--0--------0--------0--------|
--0--0--0--0--0--0--0--0--0--|--x--------x--------x--------|
-----------------------------|--3--3--3--3--3--3--2--2--2--|
  say      does     that        star     spang -  led


--------------------------|----------------------|
---------3--------3-------|----------------------|
---------0--------0-------|--2-------------------|
--2------2--2--2--2----2--|--2-------------------|
--2------2--2--2--2----2--|--0-------------------|
--0------0--0--0--0----0--|----------------------|
  ban -  ner      yet        wave         O'er the


-----------------------------|----------------------|
--3--------3--------3--------|--3-------------------|
--2--2--2--2--2--2--2--2--2--|--2-------------------|
--0--0--0--0--0--0--0--0--0--|--0-------------------|
--0--0--0--0--0--0--0--0--0--|--0-------------------|
-----------------------------|----------------------|
  land     of    the            free          and the


----------------------|----------------------|--2-------------------||
--3-------------------|--2-------------------|--3-------------------||
--2-------------------|--2-------------------|--2-------------------||
--0-------------------|--2-------------------|--0-------------------||
--0-------------------|--0-------------------|--0-------------------||
----------------------|----------------------|----------------------||
  home           of      the                    brave?

Other versions of Star Spangled Banner

Star spangled bannerChords
Star spangled banner ukuleleChords

Almost there ...

Sign in to get your own page with links to favourite songs and more. You are just one click away...

Login with Facebook Login with Google