Log in

One click and you are in

Login with Facebook Login with Google

Why sign up and log in

Guitar Tabs Explorer
Taylor Swift bass tabs for Speak now

Bass tabs

Speak now

Pre Chorus
G|---------------------------------------|
D|---------------------------------------|
A|0—0/3---3/----------0-0/3---3/5--------|
E|----------3-3-0-0-2--------------------|
Pre chorus (repeated)
G|---------------------------------------|
D|---------------------------------------|
A|0—0/3---3/----------0-0/3---3/5----5/0-|
E|----------3-3-0-0-2--------------------|


Chorus
G|---------------------------------------------|
D|----------0-00000----------------------------|
A|-------------------0-00000-3-33033-----------|
E|--3-33333------------------------------------|

G|---------------------------------------------|
D|----------0-00000----------------------------|
A|-------------------0-00000-3333--------------|
E|--3-33333----------------------3-------------|


Pre-verse/Verse
G|---------------------------------------------|
D|----------0-0--------------------------------|
A|-------------------0-0-3-330-----3-----------|
E|--3-3----------------------------------------|


Verse

Verse 2

Pre-Chorus

Chorus


Bridge "I hear the preacher say”
G|---------------------------------|
D|---------------------------------|
A|-0-----3---------0-2-4-5---------|
E|-------------3-------------------|

G|---------------------------------|
D|---------------------------------|
A|-0-----3---------------5---------|
E|-------------3-------------------|

Pause

I am not the kind of girl (START! Before who should be..)
G|--------------------------------------|
D|--------------------------------------|
A|-5/0-----3-----------5---5-0-0-3------|
E|----------------3---3-----------------|


CHORUS

ⓘ Bass guitar tab for 'Speak Now' by Taylor Swift, a female pop artist from Pennsylvania, USA. Taylor Swift was born in 1989. Taylor Swift is known for her energetic rock/pop music.

Almost there ...

Sign in to get your own page with links to favourite songs and more. You are just one click away...

Login with Facebook Login with Google