GuitarTabsExplorer icon
GuitarTabsExplorer icon

Log in

Songbook

  • Log in to add and see bookmarks

Last visited songs

  • No songs visited yet...
Shake It Off by Taylor Swift

Shake It Off bass tab by Taylor Swift

Bass tabs

No bass in first verse

[Pre-Chorus]

G|----------------------------------------------------------------|
D|----------------------------------------------------------------|
A|------------------3---------------------------------------------|
E|5---------------3---------------1-3-----------------------------|
 1 2 3 4 5 6 7 8 1 2 3 4 5 6 7 8 1 2 3 4 5 6 7 8 1 2 3 4 5 6 7 8

[Chorus]

G|----------------------------------------------------------------|
D|----------------------------------------------------------------|
A|------------------3-3-3-3-3-3-3---------------------------------|
E|5-5-5-5-5-5-5-5-3---------------1-3-3-3-3-3-3-3-3-3-3-3-3-3-3-3-|  x2
 1 2 3 4 5 6 7 8 1 2 3 4 5 6 7 8 1 2 3 4 5 6 7 8 1 2 3 4 5 6 7 8
[Verse 2]

G|----------------------------------------------------------------|
D|----------------------------------------------------------------|
A|----------------------------------------------------------------|
E|--------------------------------3-------------------------------|
 1 2 3 4 5 6 7 8 1 2 3 4 5 6 7 8 1 2 3 4 5 6 7 8 1 2 3 4 5 6 7 8


G|----------------------------------------------------------------|
D|----------------------------------------------------------------|
A|----------------------------------------------------------------|
E|------------------------------------------------3---3---3-3---3-|
 1 2 3 4 5 6 7 8 1 2 3 4 5 6 7 8 1 2 3 4 5 6 7 8 1 2 3 4 5 6 7 8

[Pre-Chorus]


G|----------------------------------------------------------------|
D|----------------------------------------------------------------|
A|------------------3---------------------------------------------|
E|5---------------3---------------1-3-----------------------------|
 1 2 3 4 5 6 7 8 1 2 3 4 5 6 7 8 1 2 3 4 5 6 7 8 1 2 3 4 5 6 7 8


[Chorus]

G|----------------------------------------------------------------|
D|----------------------------------------------------------------|
A|------------------3-3-3-3-3-3-3---------------------------------|
E|5-5-5-5-5-5-5-5-3---------------1-3-3-3-3-3-3-3-3-3-3-3-3-3-3-3-|  x3
 1 2 3 4 5 6 7 8 1 2 3 4 5 6 7 8 1 2 3 4 5 6 7 8 1 2 3 4 5 6 7 8
Rest 2:18 to 2:45


[Chorus]

G|----------------------------------------------------------------|
D|----------------------------------------------------------------|
A|------------------3-3-3-3-3-3-3---------------------------------|
E|5-5-5-5-5-5-5-5-3---------------1-3-3-3-3-3-3-3-3-3-3-3-3-3-3-3-|  x5
 11 2 3 4 5 6 7 8 1 2 3 4 5 6 7 8 1 2 3 4 5 6 7 8 1 2 3 4 5 6 7 8

Credit to https://www.youtube.com/watch?v=wCEROGb9Hm8


************************************

| x  Dead note
| g  Grace note
| (n) Ghost note
| h  Hammer-on
| p  Pull-off
| r  Release
| >  Accented note
| t  Tapping
| b  Bend
| br Bend release
| pb Pre-bend
| pbr Pre-bend release
| /  Slide up
| \  Slide down
| ~  Vibrato
| s  Slap
| P  Pop
| PM Palm mute
| TR Trill
| N  Tremolo

[ Privacy | About us ]

Welcome to the guitar community

Why join and log in?
- Get songbook with favourite songs
- Get custom made front page
- Submit chords and tabs
- Submit guitar-cover videos
- Get a lot of thumbs up for your work

Songbook

Last visited songs

Site
Home
Search
Community
Submit chords

Video

No video for this page. Check out how you can submit guitar-cover videos here

Search tabs and chords

Browse by artist

A B C D E F G H I J K L M N O P Q R S T U V W X Y Z #


Menu

Search

Video

Bookmark

Login