Log in

One click and you are in

Login with Facebook Login with Google

Why sign up and log in

Guitar Tabs Explorer
Taylor Swift tabs for Safe and sound

Guitar tabs

  • Capo on 7th
INTRO:
A chord diagramE MajorE |--------------1h-0----------------------------------|
A chord diagramBB |--------------3-----------------------1-------------|
A chord diagramG+G |--------2-----------2-------------------------------|
A chord diagramD MajorD |--0-----------------------------2-----2-------------|
A chord diagramA augmentedA |--------------------------0-------------------------|
A chord diagramE MajorE |----------------------------------------------------|

----------------------------------------------------|
-----------------------------------------------1----|
--0h-2--2-----2-----0--------------0----------------|
--3-----3-----3-----------0h-2--2-----------2-------|
--------------------------3-----------0h-3----------|
----------------------------------------------------|


--------------1h-0----------------------------------|
--------------3-----------------------1-------------|
--2-----2-----------2-------------------------------|
--0-----------------------------2-----2-------------|
--------------------------0-------------------------|
----------------------------------------------------|


----------------------------------------------------|
--------------1-----------1-------------------------|
--2-----2-----------2h-0----------------------------|
--3-----3-------------------------------------------|
--------------------------3-------------------------|
--1-------------------------------------------------|


VERSE:
--1-----------1h-0--------------------0-------------|
--3-----------3-----------------------1-------------|
-----------2-----------2--------2-----------2-------|
--0-----0-----------0-----2-------------------------|
--------------------------0-------------------------|
----------------------------------------------------|

----------------------------------------------------|
-----------------------------------------------1----|
--0h-2--2-----2-----0--------------0--------0-------|
--3-----3-----3-----3-----0h-2--2-------------------|
--------------------------3-----------0h-3----------|
--1-------------------------------------------------|


--------------1h-0----------------------------------|
--------------3-----------------------1-------------|
--0-----2-----------2-----------------2-------------|
--0-----------------------------2-----------2-------|
--------------------------0-------------------------|
----------------------------------------------------|


--------------------------------------0-------------|
--------------1-----------1-----------1-------------|
--2-----2-----------0h-2----------------------------|
--3-----3-----------------------2-------------------|
--------------------------3-----------3-------------|
----------------------------------------------------|


--1-----------1h-0--------------------0-------------|
--3-----------3-----------------------1-------------|
-----------2-----------2--------2-----------2-------|
--0-----0-----------0-----2-------------------------|
--------------------------0-------------------------|
----------------------------------------------------|


----------------------------------------------------|
--------------1--------------------------------1----|
--2-----2-----2-----0h-2-----------0----------------|
--3-----------------------0h-2--2-----------2-------|
--------------------------3-----------0h-3----------|
----------------------------------------------------|


----------------------------------------------------|
--------------0-----------1-----------3-------------|
--------------0--------0----------------------------|
--------0-----------0-----2-----2-----------2-------|
----------------------------------------------------|
--3-------------------------------------------------|


--------------------0-----0-------------------------|
----------------------------------------------------|
--2-----2-----2--------2--2-------------------------|
----------------------------------------------------|
----------------------------------------------------|
----------------------------------------------------|


CHORUS:
--------------------------------------0-------------|
--1-----------1-----------3-----------1-------------|
--------------2--------2--2--------------------0----|
--3-----3-----------3-----------3-----------0-------|
----------------------------------------------------|
----------------------------------------------------|


--3-----------3h-0--------------3h-0----------------|
--1-----------1-----------3-----------3-----1-------|
-----------------------0--------------0-----0-------|
--------2-----------2-------------------------------|
--3-------------------------------------------------|
--------------------------3-------------------------|


--------------------------------------0-------------|
--------------1-----------3-----------1-------------|
--0h-2-----------------2--2--------------------0----|
--3-----3-----3-----3-----------3-----------0-------|
----------------------------------------------------|
----------------------------------------------------|


--3-----------0-----------------0-------------------|
--------------3-----------3--------3--3-----1-------|
-----------------------0--------------------0-------|
--------2-----------2-----------------2-------------|
--3-----------------------3-------------------------|
----------------------------------------------------|


--------------------------------------0-------------|
--1-----------1-----------3-----------1-------------|
--------------2--------2--2--------------------0----|
--3-----3-----------3-----------3-----------0-------|
----------------------------------------------------|
----------------------------------------------------|


--3-----------3h-0--------------0-------------------|
--1-----------1-----------3--------3--3-----1-------|
-----------------------0--------------0-----0-------|
--------2-----------2-------------------------------|
--3-------------------------------------------------|
--------------------------3-------------------------|


--------------0-----------------------0-------------|
--------------1-----------0--------------------0----|
--------2-----------2-----------0-------------------|
--2-----------------------------------------2-------|
--0-------------------------------------------------|
--------------------------3-------------------------|


--------------------0-------------------------------|
--------0-----1-----------1-------------------------|
--2-----------2--------2----------------------------|
--2-----------------------2-------------------------|
----------------------------------------------------|
----------------------------------------------------|


VERSE 2:
--0h-1--------1h-0--------------------0-------------|
--3-----------3-----------0h-1--------1-------------|
-----------2-----------2--2-------------------------|
--0-----0-----------0-----------2-----------2-------|
--------------------------0-------------------------|
----------------------------------------------------|


----------------------------------------------------|
-----------------------------------------------1----|
--0h-2--2-----2-----0--------------0--------0-------|
--3-----3-----3-----------0h-2--2-------------------|
--------------------------3-----------0h-3----------|
----------------------------------------------------|


--------------1h-0--------------------0-------------|
--------------3-----------0h-1--------1-------------|
--------2-----------2-----2-------------------------|
--0-----------------------------2-------------------|
--------------------------0-------------------------|
----------------------------------------------------|


--------------0-----------------------0-------------|
--1-----------1-----------1-----------1-------------|
--2-----------------------0-------------------------|
--3-----3-----------3-----------2-----------0-------|
-----------------------0--3-------------------------|
----------------------------------------------------|


--0-----1-----------0-------|
--3-----3-----1-----1-------|
--------------2-------------|
--0--0-----0-----2-----2----|
--------------0-------------|
----------------------------|


----------------------------------------------------|
-----------------------------------------------1----|
--0h-2--2-----2-----0--------------0--------0-------|
--3-----3-----3-----------0h-2--2-------------------|
--------------------------3-----------0h-3----------|
----------------------------------------------------|


--------------1h-0--------------------0-------------|
--3-----------3-----------1-----------1-------------|
-----------2-----------2--2-------------------------|
--0-----0-----------0-----------2-----------2-------|
--------------------------0-------------------------|
----------------------------------------------------|


--------------------------------------0-------------|
--------------1-----------1-----------1-------------|
--2-----2-----------0h-2----------------------------|
--3-----3-----------------------2-------------------|
--------------------------3-----------3-------------|
----------------------------------------------------|


--0h-1--------1h-0--------------------0-------------|
--3-----------3-----------0h-1--------1-------------|
-----------2-----------2--2-------------------------|
--0-----0-----------0-----------2-----------2-------|
--------------------------0-------------------------|
----------------------------------------------------|


----------------------------------------------------|
--------------------------------------1-------------|
--0h-2--2-----2-----0-----0-----------0-------------|
--3-----3-----3-----------------2-----------2-------|
--------------------------3-------------------------|
----------------------------------------------------|


--1-----------3-------------|-------|
--3-----3-----------3-------|-------|
--------2-------------------|-------|
--0--0--------0-------------|--3----|
----------------------------|-------|
----------------------------|-------|


--------------------0-------------------------------|
--------------1-------------------------------------|
--------2-------------------------------------------|
--3--------------------3L-3-------------------------|
----------------------------------------------------|
----------------------------------------------------|

The second chorus is just strumming these chords:

A chord diagramFF A chord diagramFF A chord diagramC majorC A chord diagramG+G

I recommend playing it like this:
A chord diagramE MajorE |--------------------0--0----|--3--3--3--3--3--3--3--3----||
A chord diagramBB |--1--1--1--1--3--3--3--3----|--1--1--1--1--0--0--0--0----||
A chord diagramG+G |--2--2--2--2--2--2--2--2----|--0--0--0--0--0--0--0--0----||
A chord diagramD MajorD |--3--3--3--3--3--3--3--3----|--2--2--2--2--0--0--0--0----||
A chord diagramA augmentedA |----------------------------|--3--3--3--3--2--2--2--2----||
A chord diagramE MajorE |----------------------------|--------------3--3--3--3----||

Play it 3 times, and end with

A chord diagramA augmentedA         A chord diagramEm/GEm/G (3x2000)    A chord diagramFF
(Safe......and.............sound)

Then, for the "oooooh" part, it's the same chords as the chorus, just play them twice as long.

Afterwards:
A chord diagramE MajorE |--3-----------3-----------------------3-------------|
A chord diagramBB |--1-----------1-----------3-------------------------|
A chord diagramG+G |--------------2--------2--2--------------------0----|
A chord diagramD MajorD |--3-----3-----------3-----------3-----------0-------|
A chord diagramA augmentedA |----------------------------------------------------|
A chord diagramE MajorE |----------------------------------------------------|


--3-----3-------------------|
--------1-----3-------------|
--------------0-------------|
-----2-----2----------------|
--3-----------2-------------|
----------------------------|


--3-----------3-----------------------3-------------|
--1-----------1-----------3-------------------------|
--------------2--------2--2--------------------0----|
--3-----3-----------3-----------3-----------0-------|
----------------------------------------------------|
----------------------------------------------------|


--3-----------3h-0----------------------------------||
--------------1-----------3-------------------------||
-----------------------0--0-------------------------||
--------2-----------2-------------------------------||
--3-----------------------2-------------------------||
----------------------------------------------------||


Like the chorus:

A chord diagramFF A chord diagramFF A chord diagramC majorC A chord diagramG+G
A chord diagramA augmentedA A chord diagramEm/GEm/G A chord diagramFF

The final set of "ooohhs"

A chord diagramFF A chord diagramFF A chord diagramC majorC A chord diagramG+G x 5

End with single strums on F,C, and G.


THE END

Safe And Sound tab

Taylor Swift tabs for Safe and sound 'Safe and sound' is a soundtrack single from 'The hunger games' movie from 2012. It is a colaboration between Taylor Swift and folkrock duo The Civil Wars. Taylor Swift had great success marketing the song on Twitter.

It became a hit on iTunes following her initial tweets about the song. 'Safe and sound' features lots of twangy guitars and is great fun to play. Use these tabs to get the correct Taylor Swift sound on this awesome song. Have fun!

Other versions of Safe And Sound

Safe and sound (Ver. 2)Tabs
Safe and sound (Ver. 3)Tabs
Safe and sound (Ver. 4)Tabs
Safe and sound acousticTabs

Almost there ...

Sign in to get your own page with links to favourite songs and more. You are just one click away...

Login with Facebook Login with Google