Log in

One click and you are in

Login with Facebook Login with Google

Why sign up and log in

Guitar Tabs Explorer
Taylor Swift bass tabs for Red

Bass tabs

0:23
G|-----------------------------------------------------------------|
D|-----------------------------------------------------------------|
A|-0-0-0-0-0-0-0-2-4-4-4-4-4-4-4-4-2-2-2-2-2-2-2-2-2-2-2-2-2-2-2-2-|
E|-----------------------------------------------------------------|
  1 + 2 + 3 + 4 + 1 + 2 + 3 + 4 + 1 + 2 + 3 + 4 + 1 + 2 + 3 + 4 +

G|-----------------------------------------------------------------|
D|-------------2---------------------------------------------------|
A|-0-0-0-0-0-4---4-4-4-4-4-4-2-4-2-2-2-2-2-2-2-2-2-2-0-------------|
E|-----------------------------------------------------------------|
  1 + 2 + 3 + 4 + 1 + 2 + 3 + 4 + 1 + 2 + 3 + 4 + 1 + 2 + 3 + 4 +

0:38 Chorus
G|-----------------------------------------------------------------|
D|-----------------------------------------------------------------|
A|-0---0---0---0-0-----------------2---2---2---2-2-2---2---2---2-2-|
E|-----------------0---0---0---0-0---------------------------------|
  1 + 2 + 3 + 4 + 1 + 2 + 3 + 4 + 1 + 2 + 3 + 4 + 1 + 2 + 3 + 4 +

G|-----------------------------------------------------------------|
D|-----------------------------------------------------------------|
A|-0---0---0---0-2-4---4---4---4-4-2---2---2---2-2-2---2---2-2-2-2-|
E|-----------------------------------------------------------------|
  1 + 2 + 3 + 4 + 1 + 2 + 3 + 4 + 1 + 2 + 3 + 4 + 1 + 2 + 3 + 4 +

G|-----------------------------------------------------------------|
D|-----------------------------------------------------------------|
A|-0-0-0-0-0-0-2-4-4-4-4-4-4---4-2-2---2-2-2-2-7---7-6-6-7-7-6-6---|
E|-----------------------------------------------------------------|
  1 + 2 + 3 + 4 + 1 + 2 + 3 + 4 + 1 + 2 + 3 + 4 + 1 + 2 + 3 + 4 +

G|-----------------------------------------------------------------|
D|-----------------------------------------------6-9---------------|
A|-0-0-0-0-0-0-2-4-4---4-4-4-4-2---2-2-2-2-2-2-29------------------|
E|-----------------------------------------------------------------|
  1 + 2 + 3 + 4 + 1 + 2 + 3 + 4 + 1 + 2 + 3 + 4 + 1 + 2 + 3 + 4 +

1:09 Verse
G|-----------------------------------------------------------------|
D|---------------------------2-------------------------------------|
A|-0-0-0-0-0-0-0-2-4-4-4-4-4---4-2-2-2-2-2-2-2-2-2-2-2-2-2-2-2-2-2-|
E|-----------------------------------------------------------------|
  1 + 2 + 3 + 4 + 1 + 2 + 3 + 4 + 1 + 2 + 3 + 4 + 1 + 2 + 3 + 4 +

G|-----------------------------------------------------------------|
D|---------------------------2-------------------------------------|
A|-0-0-0-0-0-0-0-2-4-4-4-4-4---4-2-2-2-2-2-2-2-2-2-2-2-2-2-2-2-2-2-|
E|-----------------------------------------------------------------|
  1 + 2 + 3 + 4 + 1 + 2 + 3 + 4 + 1 + 2 + 3 + 4 + 1 + 2 + 3 + 4 +

G|-----------------------------------------------------------------|
D|-----------------------------------------------------------------|
A|-0-0-0-0-0-0-0-2-4-4-4-4-4-4-4-4-2-2-2-2-2-2-2-2-2-2-2-2-2-2-2-2-|
E|-----------------------------------------------------------------|
  1 + 2 + 3 + 4 + 1 + 2 + 3 + 4 + 1 + 2 + 3 + 4 + 1 + 2 + 3 + 4 +

G|-------------------------------------------4--4------------------|
D|-------------------------------------------------6-6-6-4-4-------|
A|-0-0-0-0-0-2-2-4-4-4-4-4-4-4-4-4-2-2-2-2-2-----------------6-6-4-|
E|-----------------------------------------------------------------|
  1 + 2 + 3 + 4 + 1 + 2 + 3 + 4 + 1 + 2 + 3 + 4 + 1 + 2 + 3 + 4 +

1:40 Chorus
G|-----------------------------------------------------------------|
D|-----------------------------------------------------------------|
A|-0---0---0---0-0-----------------2---2---2---2-2-2---2---2---2-2-|
E|-----------------0---0---0---0-0---------------------------------|
  1 + 2 + 3 + 4 + 1 + 2 + 3 + 4 + 1 + 2 + 3 + 4 + 1 + 2 + 3 + 4 +

G|-----------------------------------------------------------------|
D|-----------------------------------------------------------------|
A|-0---0---0---0-2-4---4---4---4-4-2---2---2---2-2-2---2---2-2-2-2-|
E|-----------------------------------------------------------------|
  1 + 2 + 3 + 4 + 1 + 2 + 3 + 4 + 1 + 2 + 3 + 4 + 1 + 2 + 3 + 4 +

G|-----------------------------------------------------------------|
D|-----------------------------------------------------------------|
A|-0-0-0-0-0-0-2-4-4-4-4-4-4---4-2-2---2-2-2-2-7---7-6-6-7-7-6-6---|
E|-----------------------------------------------------------------|
  1 + 2 + 3 + 4 + 1 + 2 + 3 + 4 + 1 + 2 + 3 + 4 + 1 + 2 + 3 + 4 +

G|-----------------------------------------------------------------|
D|-------------------------2---------------------------------------|
A|-0-0-0-0-0-0-0-2-4-4-4-4---4-2---2-2-2-2-2-2-2-2-2-----2---4-2---|
E|---------------------------------------------------2-4---------4-|
  1 + 2 + 3 + 4 + 1 + 2 + 3 + 4 + 1 + 2 + 3 + 4 + 1 + 2 + 3 + 4 +

2:10 Bridge
G|-----------------------------------------------------------------|
D|-----------------------------------------------------------------|
A|-0---0---0---0---2---2---2---2---4---4---4---4---6---6---7---7---|
E|-----------------------------------------------------------------|
  1 + 2 + 3 + 4 + 1 + 2 + 3 + 4 + 1 + 2 + 3 + 4 + 1 + 2 + 3 + 4 +

G|-----------------------------------------------------------------|
D|-----------------------------------------------------------------|
A|-0---0---0-0-0-0-----------------2---2---2-2-2-2-----------------|
E|-----------------4---4---4-4-4-4---------------------------------|
  1 + 2 + 3 + 4 + 1 + 2 + 3 + 4 + 1 + 2 + 3 + 4 + 1 + 2 + 3 + 4 +

2:26 Solo
G|-----------------------------------------------------------------|
D|---------------------------2-------------------------------------|
A|-0---0-0-0-0-2-4-4-4-4-4-4---4-4-2-2-2-2-2-----2-2-2-2-2-2-------|
E|-------------------------------------------2-4-------------2-4-4-|
  1 + 2 + 3 + 4 + 1 + 2 + 3 + 4 + 1 + 2 + 3 + 4 + 1 + 2 + 3 + 4 +

G|-----------------------------------------------------------------|
D|---------------2-------------------------------------------------|
A|-0-0-0-0-2---4---4---4-4-4-2-4-2-2-2-2-2-2-2-2-2-2-2-2-2-2-2-2-2-|
E|-----------------------------------------------------------------|
  1 + 2 + 3 + 4 + 1 + 2 + 3 + 4 + 1 + 2 + 3 + 4 + 1 + 2 + 3 + 4 +

2:41 Pre-Chorus
G|-----------------------------------------------------------------|
D|-----------------------------------------------------------------|
A|-0---0---------------------------2---2---2---2---2-2-2-2-2-2-2-2-|
E|-----------------0-0-0-------------------------------------------|
  1 + 2 + 3 + 4 + 1 + 2 + 3 + 4 + 1 + 2 + 3 + 4 + 1 + 2 + 3 + 4 +

2:49 Chorus
G|-----------------------------------------------------------------|
D|---------------------------2---------------------------4---4-----|
A|-0-0-0-0-0-2-3-4-4-4-4-4-4---4-0-2-2-2-2-2-2-2-2-2-2-2---6---6---|
E|-----------------------------------------------------------------|
  1 + 2 + 3 + 4 + 1 + 2 + 3 + 4 + 1 + 2 + 3 + 4 + 1 + 2 + 3 + 4 +

G|-----------------------------------------------------------------|
D|-----------------------------------------------------------------|
A|-0-0-0-0-0-0-2-4-4-4-4-4-4-4-4-2-2-2-2-2-2-2-2-7-7-6-6-7-7-6-6---|
E|-----------------------------------------------------------------|
  1 + 2 + 3 + 4 + 1 + 2 + 3 + 4 + 1 + 2 + 3 + 4 + 1 + 2 + 3 + 4 +

G|-----------------------------------------------------------------|
D|-------------2---------------------------------------------------|
A|-0-0-0-0-0-4---4-4-4-4-4-4---0---2-2-2-2-2-----2-----2-----------|
E|---------------------------4---------------2-4---2-4-----4-4-4---|
  1 + 2 + 3 + 4 + 1 + 2 + 3 + 4 + 1 + 2 + 3 + 4 + 1 + 2 + 3 + 4 +

G|-----------------------------------------------------------------|
D|-----------------------------------------------------------------|
A|-0-0-0-0-0-0-2-4-4-4-4-4-4-4-----2-2-2-2-2-2-2-7-7-6-6-7-7-6-6---|
E|-----------------------------4-----------------------------------|
  1 + 2 + 3 + 4 + 1 + 2 + 3 + 4 + 1 + 2 + 3 + 4 + 1 + 2 + 3 + 4 +

G|-----------------------------------------------------------------|
D|---------------2-------------------------------------------------|
A|-0-0-0-0-2---4---4-4-4-4-4-4-4-4-2-2-2-2-2-2-2-2-2-----------0---|
E|---------------------------------------------------0---2-2-4-----|
  1 + 2 + 3 + 4 + 1 + 2 + 3 + 4 + 1 + 2 + 3 + 4 + 1 + 2 + 3 + 4 +

ⓘ Bass guitar tab for 'Red' by Taylor Swift, a female pop artist from Pennsylvania, USA. Taylor Swift was born in 1989. Taylor Swift is known for her energetic rock/pop music.

Almost there ...

Sign in to get your own page with links to favourite songs and more. You are just one click away...

Login with Facebook Login with Google