Log in

One click and you are in

Login with Facebook Login with Google

Why sign up and log in

Guitar Tabs Explorer
Taylor Swift bass tabs for Ours

Bass tabs

The start of the song is slow paced, so that's how I tabbed the timings differently at
certain parts. There are no '13s,' just 1's and 3's.

0:36 Verse
G|-----------------------------------------------------------------|
D|-----------------------------------------------------------------|
A|-3---0-----------3---0---------5-3---0-----------3---------------|
E|---------1---------------1---------------1-----3-----3---1-------|
  1 2 3 4 1 2 3 4 1 2 3 4 1 2 3 4 1 2 3 4 1 2 3 4 1 2 3 4 1 2 3 4

1:00 Chorus
G|-------------------------------------------------|
D|-------------------------------------------------|
A|---------3---0-----------0---0-------------------|
E|-1---3-----------1--13-----------1---1---3---3---|
  1 2 3 4 1 2 3 4 1 2 3 4 1 2 3 4 1 2 3 4 1 2 3 4

1:18 Instrumental
G|---------------------------------|
D|---------------------------------|
A|-3---0-----------3---0-----------|
E|---------1-----13--------1-----13|
  1 2 3 4 1 2 3 4 1 2 3 4 1 2 3 4

1:31 Verse
G|-------------------------------------------------|
D|-------------------------------------------------|
A|-3---0----------13---0-----------3---0-----------|
E|---------1---------------1---------------1-------|
  1 2 3 4 1 2 3 4 1 2 3 4 1 2 3 4 1 2 3 4 1 2 3 4

1:49
G|-----------------------------------------|
D|-----------------------------------------|
A|-3---------------------------------------|
E|---------3-------1---1---3-3-3-3-3---3---|
  1 + 2 + 3 + 4 + 1 + 2 + 3 + 4 + 1 + 2 +

1:54 Chorus
G|-------------------------------------------------|
D|-------------------------------------------------|
A|---------3---0-----------0---0--0----------------|
E|-1---3-----------1--13-----------1---1---3---3---|
  1 2 3 4 1 2 3 4 1 2 3 4 1 2 3 4 1 2 3 4 1 2 3 4

2:12
G|---------------------------------|
D|---------------------------------|
A|-3---0-----------3---0-----------|
E|---------1---------------1------3|
  1 2 3 4 1 2 3 4 1 2 3 4 1 2 3 4

2:24 Bridge
G|-----------------------------------------------------------------|
D|-----------------------------------------------------------------|
A|-------------------------3---2---------------------------3---2---|
E|-5-------3-------1---------------5-------3-------1---------------|
  1 + 2 + 3 + 4 + 1 + 2 + 3 + 4 + 1 + 2 + 3 + 4 + 1 + 2 + 3 + 4 +

G|-----------------------------------------------------------------|
D|-----------------------------------------------------------------|
A|-------------------------3---2-----------------------------------|
E|-5-------3-------1---------------1---------------3---------------|
  1 + 2 + 3 + 4 + 1 + 2 + 3 + 4 + 1 + 2 + 3 + 4 + 1 + 2 + 3 + 4 +

Rest

3:01
G|-----------------------------------------------------------------|
D|-----------------------------------------------------------------|
A|-3-------0-----------------3530--3-------------------------------|
E|-----------------1-------------33--------3-------1-1-1-1-3-3-3-3-|
  1 + 2 + 3 + 4 + 1 + 2 + 3 + 4 + 1 + 2 + 3 + 4 + 1 + 2 + 3 + 4 +

3:12 Chorus
G|-----------------------------------------------------------------|
D|-----------------------------------------------------------------|
A|-----------------3---3-3-0---0-0-----------------------3---------|
E|-1---1-1-3---3-3-----------------1---1-1-3---3-3-5-3335-5-5-5535\|
  1 + 2 + 3 + 4 + 1 + 2 + 3 + 4 + 1 + 2 + 3 + 4 + 1 + 2 + 3 + 4 +

G|-----------------------------------------------------------------|
D|-----------------------------------------------------------------|
A|-----------------3---3-3-0---0-0---------------------------------|
E|-1---1-1-3---3-3-----------------1---1-1-3---3-3/8---8-8-5---5-5-|
  1 + 2 + 3 + 4 + 1 + 2 + 3 + 4 + 1 + 2 + 3 + 4 + 1 + 2 + 3 + 4 +

G|-----------------------------------------------------------------|
D|-----------------------------------------------------------------|
A|-----------------0-----------------------------------------------|
E|-1---1-1-3---3-3-------------------------------------------------|
  1 + 2 + 3 + 4 + 1 + 2 + 3 + 4 + 1 + 2 + 3 + 4 + 1 + 2 + 3 + 4 +

Almost there ...

Sign in to get your own page with links to favourite songs and more. You are just one click away...

Login with Facebook Login with Google