Log in

One click and you are in

Login with Facebook Login with Google

Why sign up and log in

Guitar Tabs Explorer
Taylor Swift bass tabs for Our song

Bass tabs

OUR SONG BASS TAB
TAYLOR SWIFT

TABBED BY: Mike McDaniel

|-------------------------------------|
|-------------------------------------|
|--5-----5-----0-----3----------------| x 9
|---------0-----3-----5-----5---------|

|--------------------------------------|
|--------------------------------------|
|--2-----0-----------------------------| x 1
|--------------0-----23----------------|

|-------------------------------------|
|-------------------------------------|
|--5-----5-----0-----3----------------| x 9
|---------0-----3-----5-----5---------|

|--------------------------------------|
|--------------------------------------|
|--2-----0-----------------------------| x 1
|--------------0-----23----------------|

|-------------------------------------|
|-------------------------------------|
|--5-----5-----0-----3----------------| x 1
|---------0-----3-----5-----5--55555--|

|-----------------------------------------|
|-----------------------------------------|
|--------------5--4--2--------------------| x 1
|--0-----3--------------3-----------------|

Rest with no bass then come in loud and hard
|-------------------------------------|
|-------------------------------------|
|--5-----5-----0-----3----------------| x 1
|---------0-----3-----5-----5---------|

|--------------------------------------|
|--------------------------------------|
|--2-----0-----------------------------| x 1
|--------------0-----23----------------|

|-------------------------------------|
|-------------------------------------|
|--5-----5-----0-----3----------------| x 7
|---------0-----3-----5-----5---------|


|----------------------------------|
|----------------------------------|
|--5-------------------------------| x 1
|--------0-----3-------------------|

Copyright 2007 Mike McDaniel

Almost there ...

Sign in to get your own page with links to favourite songs and more. You are just one click away...

Login with Facebook Login with Google