Log in

One click and you are in

Login with Facebook Login with Google

Why sign up and log in

Guitar Tabs Explorer
Taylor Swift bass tabs for No body, no crime

Bass tabs with lyrics

Tuning: Standard (E A D G)


Intro:

*break*

 He did it
 He did it

Verse 1:

*break*

 Este's a friend of mine / We meet up every Tuesday night for dinner and a glass of wine
 Este's been losin' sleep / Her husband's actin' different, and it smells like infidelity
 She says, "That ain't my merlot on his mouth / That ain't my jewelry on our joint account"
 No, there ain't no doubt / I think I'm gonna call him out


Chorus:

 She says, "I think he did it, but I just can't prove it"
 I think he did it, but I just can't prove it
 I think he did it, but I just can't prove it
 No, no body, no crime / But I ain't lettin' up until the day I die

G|-------------------|---------------|------3-5-5----5-|-----------------|
D|-------------------|-1----1-3-3--3-|-5---------------|-1-1-1-1-3-3-3-3-|
A|--------1-3-3--1-3-|----3----------|-----------------|-----------------|
E|-3-3--3------------|---------------|-----------------|-----------------|

G|---------------|---------------|---------------|-------------|
D|-5-5--5------3-|--------3-3--3-|-5----5--------|-------------|
A|--------3-3----|-1-1--1--------|--------3-3--3-|-/8----------|
E|---------------|---------------|---------------|-------------|

Post-Chorus:

 No, no I think he did it
 No, no He did it

G|-----------------|------------------|-----------------|---------------|
D|----------1-1--1-|-3-3--------0-----|----------1-1--1-|-3---3-5-----3-|
A|--------1--------|------1-3-3---3-1-|--------1--------|---------3-5---|
E|-3-3--3----------|------------------|-3-3--3----------|---------------|


Verse 2:

 Este wasn't there Tuesday night at Olive Gardеn / At her job or anywhere
 Hе reports his missing wife / And I noticed when I passed his house his truck has got some brand new tires
 And his mistress moved in / Sleeps in Este's bed and everything
 No, there ain't no doubt / Somebody's gotta catch him out, 'cause

G|----------------|-----------------|-----------------|--------------|
D|-5----5---------|-----------------|--------1-1----1-|-3--3---1-----|
A|--------6-6-6-6-|-8----8----------|-------------3---|----------3---|
E|----------------|--------8-8--6-5-|-3-3--3----------|--------------|

G|---------------|------------------|---------------|------------|
D|---------------|------------------|---------------|------------|
A|--------1-1--1-|-8-8--8\-3-3--3-1-|--------1-1--1-|-/8---------|
E|-3-3--3--------|------------------|-3-3--3--------|------------|


Chorus:

 I think he did it, but I just can't prove it (He did it)
 I think he did it, but I just can't prove it (He did it)
 I think he did it, but I just can't prove it
 No, no body, no crime / But I ain't lettin' up until the day I die

G|---------------|-------------------|---------------|------------------|
D|-5-5--5--------|-1-1--1-3-3-3-5h-3-|-3-5--5--------|-1------3-3-3-----|
A|--------3-3--3-|-------------------|--------3-3--3-|------3-------3-1-|
E|---------------|-------------------|---------------|------------------|

G|---------------|---------------|---------------|------------|
D|---------------|--------3-3--3-|---------------|------------|
A|--------3-3--3-|-1----1--------|--------3-3--3-|-/8---------|
E|-3-3--3--------|---------------|-3----3--------|------------|


Post-Chorus:

 No, no I think he did it
 No, no He did it

G|---------------|--------------------|---------------|------------|
D|--------1-1--1-|-3-3--1-3-5-----0-3-|-5-5--5--------|------------|
A|---------------|------------3-3-----|--------6-6--6-|-/8---------|
E|-3-3--3--------|--------------------|---------------|------------|


Bridge:

 Good thing my daddy made me get a boating license when I was fifteen
 And I've cleaned enough houses to know how to cover up a scene
 Good thing Este's sister's gonna swear she was with me (she was with me, dude)
 Good thing his mistress took out a big life insurance policy

G|-----------------|-----------------|-----------------|-----------------|
D|-----------------|-----------------|-----------------|-----------------|
A|-3---------------|-----------------|--3---3---3---3--|-----------------|
E|-----------------|--3--------------|-----------------|--3---3---3---3--|

G|-----------------|-----------------|-----------------|-----------------|
D|-----------------|-----------------|-----------------|-----------------|
A|--5---5---5---5--|-----------------|-3-3-3-3-3-3-3-3-|-5-5-5-5-5-------|
E|-----------------|--3---3---3---3--|-----------------|-----------------|


Outro: (bass comes back in at 3:07, the last "..just can't prove it")

 They think she did it, but they just can't prove it
 They think she did it, but they just can't prove it
 She thinks I did it, but she just can't prove it
 No, no body, no crime / I wasn't lettin' up until the day he
 No, no body, no crime / I wasn't lettin' up until the day he
 No, no body, no crime / I wasn't lettin' up until the day he died

G|-----------------|-----------------|-----------------|-----------------|
D|-----------------|-----------------|-----------------|-----------------|
A|-----------------|-----------------|-----------------|-----------------|
E|-----------------|-----------------|-----------------|-----------------|

G|-----------------|-----------------|-----------------|-----------------|
D|-----------------|----------3--5-3-|-----------------|-1-1-1-1-3-3-3-3-|
A|-----------------|-----------------|---------3-3-3-3-|-----------------|
E|-----------------|-----------------|-3-3-3-3---------|-----------------|

G|----------------------|------------------|-----------------|-----------|
D|-5-5-5-5-/10-10-10-10-|-\1-1-1-1-3-3-3-3-|-5-5---5-/10-----|-----------|
A|----------------------|------------------|-----------------|-----------|
E|----------------------|------------------|-----------------|-----------|


************************************

| h  Hammer-on
| /  Slide up
| \  Slide down

************************************

Almost there ...

Sign in to get your own page with links to favourite songs and more. You are just one click away...

Login with Facebook Login with Google