Log in

One click and you are in

Login with Facebook Login with Google

Why sign up and log in

Guitar Tabs Explorer
Taylor Swift chords for Mr perfectly fine ukulele

Mr Perfectly Fine Ukulele chords by Taylor Swift

Taylor Swift chords for Mr perfectly fine ukulele

Guitar chords

Tuning: G C E A (G C E A)

🎸 Intro:
D A Bm G
🎸 Verse 1:
       D
Mr. "Perfect face"
       A
Mr. "Here to stay"
   Bm                          G
Mr. "Looked me in the eye and told me you would never go away"
        D
Everything was right
                A
Mr. "I've been waitin' for you all my life"
   Bm                        G
Mr. "Every single day until the end, I will be by your side"


🎸 Pre-Chorus:
       Bm
But that was when I got to know Mr. "Change of heart"
   G
Mr. "Leaves me all alone," I fall apart
     D
It takes everything in me just to get up each day
     A               N.C.
But it's wonderful to see that you're okay


🎸 Chorus:
D
 Hello Mr. "Perfectly fine"
A
 How's your heart after breaking mine?
Bm                      G A
 Mr. "Always at the right place at the right time," baby
D
 Hello Mr. "Casually cruel"
A
 Mr. "Everything revolves around you"
Bm                    G
 I've been Miss "Misery" since your goodbye
  A          D
And you're Mr. "Perfectly fine"

🎸 Verse 2:
          D
Mr. "Never told me why"
         A
Mr. "Never had to see me cry"
   Bm                      G
Mr. "Insincere apology so he doesn't look like the bad guy"
         D
He goes about his day
           A
Forgets he ever even heard my name
    Bm                                  G  A
Well, I thought you might be different than the rest, I guess you're all the same


🎸 Pre-Chorus:
     Bm
'Cause I hear he's got his arm 'round a brand-new girl
     G
I've been pickin' up my heart, he's been pickin' up her
   D
And I never got past what you put me through
     A                  N.C.
But it's wonderful to see that it never fazed you


🎸 Chorus:
D
 Hello Mr. "Perfectly fine"
A
 How's your heart after breakin' mine?
Bm                      G A
 Mr. "Always at the right place at the right time," baby
D
 Hello Mr. "Casually cruel"
A
 Mr. "Everything revolves around you"
Bm
 I've been Miss "Misery" since your goodbye
  A          D   A Bm G
And you're Mr. "Perfectly fine"


🎸 Verse 3:
Bm                 G
 So dignified in your well-pressed suit
                D
So strategized, all the eyes on you

Sashay away to your seat
     A
It's the best seat, in the best room
Bm               G
 Oh, he's so smug, Mr. "Always wins"
             D
So far above me in every sense
            A
So far above feeling anything


🎸 Bridge:
            G
And it's really such a shame
     A
It's such a shame
              D
'Cause I was Miss "Here to stay"
          A
Now I'm Miss "Gonna be alright someday"
    Bm
And someday maybe you'll miss me
                G   A
But by then, you'll be Mr. "Too late"


🎸 Chorus:
E
 Goodbye Mr. "Perfectly fine"
B
 How's your heart after breakin' mine?
C#m                      A B
 Mr. "Always at the right place at the right time," baby
E
 Goodbye Mr. "Casually cruel"
B
 Mr. "Everything revolves around you"
C#m                  A
 I've been Miss "Misery" for the last time
  B          E
And you're Mr. "Perfectly fine"
        B
You're perfectly fine
   C#m                        A  B
Mr. "Look me in the eye and told me you would never go away"
            E
You said you'd never go away


------------
VOCAL MELODY

🎸 Intro:
  D   A   Bm   G
A|------|-0----|-2----|-2----|------|
E|-2----|-0----|-2----|-3----|------|
C|-2----|-1----|-2----|-2----|-2-1--|
G|-2----|-2----|-4----|------|------|


🎸 Verse 1:
  Mr. "Perfect face"... Mr. "Here to stay"...
A|-----------|-----------|-----------------------------------|
E|-2-0---0-0-|-2-0---0-0-|---0-2-0---0-2-0---0-2-0---0-2-----|
C|-----2-----|-----2-----|-2-------2-------2-------2---------|
G|-----------|-----------|-------------------------------2-4-|

  Everything was right...
A|-----------|--------------------0---|-----------------------------------|
E|-2-0---0-0-|-0------0-2-0---0-0---0-|---0-2-0---0-2-0---0-2-0---0-2-----|
C|-----2-----|---2--2-------2---------|-2-------2-------2-------2---------|
G|-----------|------------------------|-------------------------------2-4-|


🎸 Pre-Chorus:
  But that was when I got to know Mr. "Change of heart"...
A|-------0-0-0-0--------------|-----0-0-0-0------------|
E|---------------2-0------0---|-------------2------0---|
C|-1-2-2--------------2-2---2-|-2-2------------2-2---2-|
G|----------------------------|------------------------|

 It takes everything in me just to get up each day...
A|-----0-0-0-0--------0-0-0---|-----0-0-0-0------0-0-----|
E|-------------2------------2-|-------------2--0-----2-0-|
C|-2-2------------2-2---------|-2-2----------------------|
G|----------------------------|--------------------------|


🎸 Chorus:
  Hello Mr. "Perfectly fine"...
A|-0--------0-0-0-----|---0----------0-----|-----------------------0------------|
E|---2------------2-0-|-2---2------2---2-0-|---0-2-0---0-2-2-0-------2-0----0-2-|
C|------2-2-----------|--------2-2---------|-2-------2---------2-2-------2------|
G|--------------------|--------------------|------------------------------------|

  Hello Mr. "Casually cruel"...
A|-0--------0-0-0-----|-----0-0-----0-0-0-----|------------------------|-------------------|
E|---2------------2-0-|---------2---------2-0-|---0-2--3-2-2-0-0-0-2---|-2-0--0-2-0---0----|
C|------2-2-----------|-2-2-------2-----------|-2--------------------2-|------------2----2-|
G|--------------------|-----------------------|------------------------|-------------------|


🎸 Verse 2:
  Mr. "Never told me why"... Mr. "Never had to see me cry"...
A|---------------|-----------------2-|----------------------------------2-2-|
E|-2-2-2-0---0-0-|-2-2-2-0---0-0-2---|---0-2-0---0-2-0---0-2-0---0-0--2-----|
C|---------2-----|---------2---------|-2-------2-------2-------2------------|
G|---------------|-------------------|--------------------------------------|

  He goes about his day... Forgets he ever even heard my name...
A|-------------|-----------------0---|---------------------------------2-|
E|---2-0---0-0-|-2-2-2-2-0---0-0---0-|---0-2-0---0-2-0---0-2-0---0-2-----|
C|-2-----2-----|-----------2---------|-2-------2-------2-------2-----2---|
G|-------------|---------------------|-----------------------------------|


🎸 Pre-Chorus:
 'Cause I hear he's got his arm 'round a brand-new girl...
A|-----0-0-0-0--------------|-----0-0-0-0----------------|
E|-------------2--0-----0---|-------------2--0-------0---|
C|-2-2--------------2-2---2-|-2-2--------------2-2-2---2-|
G|--------------------------|----------------------------|


And I never got past what you put me through...
A|-----0-0-0--------------|-----0-0-0-0-------0-0-0-----|
E|-----------2--------0---|-------------2-----------2-0-|
C|-2-2----------2-2-2---2-|-2-2-----------2-2-----------|
G|------------------------|-----------------------------|


🎸 Chorus:
  Hello Mr. "Perfectly fine"...
A|-0--------0-0-0-----|---0----------0-----|------------------------0------------|
E|---2------------2-0-|-2---2------2---2-0-|---0-2-0---0-2-2--0-------2-0----0-2-|
C|------2-2-----------|--------2-2---------|-2-------2----------2-2-------2------|
G|--------------------|--------------------|-------------------------------------|

  Hello Mr. "Casually cruel"...
A|-0--------0-0-0-----|-----0-0-----0-0-0-----|------------------------|-------------------|
E|---2------------2-0-|---------2---------2-0-|---0-2--3-2-2-0-0-0-2---|-2-0--0-2-0---0----|
C|------2-2-----------|-2-2-------2-----------|-2--------------------2-|------------2----2-|
G|--------------------|-----------------------|------------------------|-------------------|


🎸 Instrumental:
D A Bm G


🎸 Verse 3:
  So dignified in your well-pressed suit... So strategized, all the eyes on you...
A|-0--0-0--0------------|-0--0-0--0------------|-0-0--0-0-------------------------|
E|-----------2--0-0-2---|-----------2--0-0-2---|-----------2-0-0-----2-0------2-0-|
C|--------------------2-|--------------------2-|-----------------2-2------2-2-----|
G|----------------------|----------------------|----------------------------------|

  It's the best seat, in the best room... Oh, he's so smug, Mr. "Always wins"
A|-0--0-0--0------------|-0--0-0--0------------|-0--0-0--0--0-0-5-4-0-|-0-0-0---------|
E|-----------2--0-0-2---|-----------2--0-0-2---|----------------------|-------2-0-2---|
C|--------------------2-|--------------------2-|----------------------|-------------2-|
G|----------------------|----------------------|----------------------|---------------|


🎸 Bridge:
 It's such a shame... 'Cause I was Miss "Here to stay"...
A|---------|---------------|-----------------0---|----------------------------------2-|
E|---2-0-0-|---2-2-2-0-----|-2-2-2-0---0-0-0---0-|---0-2-0---0-2-0---0-2-0--------0---|
C|-2-------|-2---------2-2-|---------2-----------|-2-------2-------2-------2--2-2-----|
G|---------|---------------|---------------------|------------------------------------|


🎸 Chorus: (Key change)
  Goodbye Mr. "Perfectly fine"... How's your heart after breakin' mine?
A|-2--------2-2-2-----|-----2-2-----2-2-2-----|----------------------|---------------------------|
E|---4------------4-2-|---------4---------4-2-|-----4--5-4-4-----4---|-4------4------4-------4---|
C|------4-4-----------|-4-4-------4-----------|-4-6----------6-4---4-|---6--6---6--6---6-4-6---4-|
G|--------------------|-----------------------|----------------------|---------------------------|

A|---------------|
E|---4----4----4-|
C|-4---6-----6---|
G|---------------|


🎸 Outro:
 Mr. "Look me in the eye and told me you would never go away"
 You said you'd never go away
A|-----------------------------------|-----------------|
E|---2-4-2---2-4-2---2-4-2---2-4-----|-----------------|
C|-4-------4-------4-------4---------|-----------------|
G|-------------------------------4-6-|-4-6-4-6-4-6-4-1-|

Almost there ...

Sign in to get your own page with links to favourite songs and more. You are just one click away...

Login with Facebook Login with Google