Log in

One click and you are in

Login with Facebook Login with Google

Why sign up and log in

Guitar Tabs Explorer
Taylor Swift chords for Miss americana and the heartbreak prince ukulele

Miss Americana And The Heartbreak Prince Ukulele chords by Taylor Swift

Taylor Swift chords for Miss americana and the heartbreak prince ukulele

Guitar chords with lyrics

Tuning: G C E A (G C E A)


Verse 1:

A|-2----4--4--4--5--2----2--4--4--4--5---2--|---2--4--5--5--4-0---4--5--5--4----0----|
E|---------------2-------------------2------|---------------0--------------0---------|
C|---------------2-------------------2------|---------------1--------------1---------|
G|---------------2-------------------2------|---------------2--------------2---------|
 You know I adore you, I'm crazier for you | Than I was at 16, lost in a film scene |

A|-0-------------------------0--------------------|--5----7--5---7----9----|
E|---------2--3--2--------------------2----3-2----|-------------------9----|
C|------------2--------2-------------------2----2-|-------------------9----|
G|----0-------0------------------0---------0------|-------------------9----|
 Waving homecoming queens, marching band playing | I'm lost in the lights |

A|-2-4-4-4--5-2---4-4---4--5--2--|--2---4---5--5-----4---0-----4----5--5---4----0---|
E|----------2--------------2-----|-------------------0---------------------0--------|
C|----------2--------------2-----|-------------------1---------------------1--------|
G|----------2--------------2-----|-------------------2---------------------2--------|
 American glory faded before me | Now I'm feeling hopeless, ripped up my prom dress|

A|-0---------------------------0--------------------|--5---7---5--7---9----♦12-♦16-♦14|
E|------------3-----2-----------------2----3-2------|-----------------9-------|
C|------------2----------2-----------------2----2---|-----------------9-------|
G|----0-------0-------------------0--------0--------|-----------------9-------|
 Running through rose thorns, I saw the scoreboard | And ran for my life (Ah)|


Pre-Chorus:

A|-5--4--5-----5----5--4--5----5----|-5--4--5---5-----5--4---5---5---|
E|-3-------------3--3-------------2-|-2------------0--0------------3-|
C|-2-------------2--2-------------2-|-2------------1--1------------2-|
G|-0-------------0--0-------------4-|-4------------2--2------------0-|
 No cameras catch my pageant smile | I counted days, I counted miles|

A|-5--12--5---5\2----5--12--5---5/7--|--5----7---5--7----7----9--5---5--|
E|-----------------3-----------------|----------------------------------|
C|-----------------2-----------------|----------------------------------|
G|-----------------0-----------------|----------------------------------|
 To see you there, to see you there | It's been a long time coming, but|

Chorus:

A|-5----7---7--9--x--7-----7---7-----9-x-|--5----7---7--7--7----9--5------5----5--7----7---9------4p2-|
E|-3--------------x--2-----------------x-|-------9--------------------------------9-------------------|
C|-2--------------x--2-----------------x-|-------9--------------------------------9-------------------|
G|-0--------------x--4-----------------x-|-------9--------------------------------9-------------------|
 It's you and me, that's my whole world | They whisper in the hallway, "She's a bad, bad girl" (Okay)|

A|-2---4------2----0----5--5----5----0--|--0---0----5--9----7-----0---0----5-9---4-5--|
E|-3--------------------2---------------|------0----------------------0---------------|
C|-2--------------------2---------------|------1----------------------1---------------|
G|-0--------------------4---------------|------2----------------------2---------------|
 The whole school is rolling fake dice | You play stupid games, you win stupid prizes|


A|-5----7---7--9--x--7------7--7----7----9-x-|--7---7-7-7-9-5--5---5----7---7------9------4p2-|
E|-3--------------x---------2--------------x-|--9-----------------------9---------------------|
C|-2--------------x---------2--------------x-|--9-----------------------9---------------------|
G|-0--------------x---------4--------------x-|--9-----------------------9---------------------|
 It's you and me, there's nothing like this | Miss Americana and The Heartbreak Prince (Okay)|

A|-2----4---2---0----5----5----5----0--|--0-0---9----7--0---0--5---9-7----5\2--|
E|-3-----------------2-----------------|--0--------------------------2---------|
C|-2-----------------2-----------------|--1------------------------------------|
G|-0-----------------4-----------------|--2------------------------------------|
 We're so sad, we paint the town blue | Voted most likely to run away with you|



Verse 2:

A|-4--4---4---5--2----4--4-----4---5---2---|-4--5--5----4-----0----4--5----5--4----0--|
E|------------2--------------------2-------|------------0---------------------0-------|
C|------------2--------------------2-------|------------1---------------------1-------|
G|------------2--------------------2-------|------------2---------------------2-------|
 My team is losing, battered and bruising | I see the high fives between the bad guys|

A|-0------------------------0-------------------|--5----7---5---9--|
E|--------2---3--2------------------2--3--2-----|---------------9--|
C|------------2--------2---------------2-----2--|---------------9--|
G|------------0-----------------0------0--------|---------------9--|
 Leave with my head hung, you are the only one | Who seems to care|


A|-2-4-4-4---5-2-----4-4----4--5--2--|--2---4--5----5---4-----0---4--5----5----4---0--|
E|-----------2-----------------2-----|------------------0----------------------0------|
C|-----------2-----------------2-----|------------------1----------------------1------|
G|-----------2-----------------2-----|------------------2----------------------2------|
 American stories burning before me | I'm feeling helpless, the damsels are depressed|

A|-0------------------------0---------------------|--5---7---5------9----♦12-♦16-♦14|
E|-----------3---2-------------------2----3-2-----|-----------------9-------|
C|-----------2--------2-------------------2----2--|-----------------9-------|
G|-------0---0-------------------0--------0-------|-----------------9-------|
 Boys will be boys then, where are the wise men? | Darling, I'm scared (Ah)|


Pre-Chorus 2:


A|-5--4--5-----5----5--4--5----5----|-5--4--5---5-----5--4---5---5---|
E|-3-------------3--3-------------2-|-2------------0--0------------3-|
C|-2-------------2--2-------------2-|-2------------1--1------------2-|
G|-0-------------0--0-------------4-|-4------------2--2------------0-|
 No cameras catch my pageant smile | I counted days, I counted miles|

A|-5--12--5---5\2----5--12--5---5/7--|--5----7---5--7----7----9--5---5--|
E|----------3------------------------|----------------------------------|
C|----------2------------------------|----------------------------------|
G|----------0------------------------|----------------------------------|
 To see you there, to see you there | It's been a long time coming, but|


Chorus:

A|-5----7---7--9--x--7-----7---7-----9-x-|--5----7---7--7--7----9--5------5----5--7----7---9------4p2-|
E|-3--------------x--2-----------------x-|-------9--------------------------------9-------------------|
C|-2--------------x--2-----------------x-|-------9--------------------------------9-------------------|
G|-0--------------x--4-----------------x-|-------9--------------------------------9-------------------|
 It's you and me, that's my whole world | They whisper in the hallway, "She's a bad, bad girl" (Okay)|

A|-2---4------2----0----5--5----5----0--|--0---0----5--9----7-----0---0----5-9---4-5--|
E|-3--------------------2---------------|------0----------------------0---------------|
C|-2--------------------2---------------|------1----------------------1---------------|
G|-0--------------------4---------------|------2----------------------2---------------|
 The whole school is rolling fake dice | You play stupid games, you win stupid prizes|


A|-5----7---7--9--x--7------7--7----7----9-x-|--7---7-7-7-9-5--5---5----7---7------9------4p2-|
E|-3--------------x---------2--------------x-|--9-----------------------9---------------------|
C|-2--------------x---------2--------------x-|--9-----------------------9---------------------|
G|-0--------------x---------4--------------x-|--9-----------------------9---------------------|
 It's you and me, there's nothing like this | Miss Americana and The Heartbreak Prince (Okay)|

A|-2----4---2---0----5----5----5----0--|--0-0---9----7--0---0--5---9-7---5\2---|
E|-3-----------------2-----------------|--0--------------------------2---------|
C|-2-----------------2-----------------|--1------------------------------------|
G|-0-----------------4-----------------|--2------------------------------------|
 We're so sad, we paint the town blue | Voted most likely to run away with you|


Bridge:

A|-12-12-12----------------12----12-12-12--------------12---|
E|-------------------------10--------------------------10---|
C|----------------------------------------------------------|
G|-------------7----7--7--------------------7---7-7---------|
 And I don't want you to (Go), I don't really wanna (Fight)|

A|--12-12-12-------------12-------------5----7---9-------7--|
E|-----------------------10----7--7----------------------9--|
C|-------------------------------------------------------9--|
G|-------------7--7--7--------------------------------------|
 'Cause nobody's gonna (Win), I think you should come home

A|-12-12-12----------------12----12-12-12--------------12---|
E|-------------------------10--------------------------10---|
C|----------------------------------------------------------|
G|-------------7----7--7--------------------7---7-7---------|
 And I don't want you to (Go), I don't really wanna (Fight)|

A|--12-12-12-------------12-------------5----7---9-------7--|
E|-----------------------10----7--7----------------------9--|
C|-------------------------------------------------------9--|
G|-------------7--7--7--------------------------------------|
 'Cause nobody's gonna (Win), I think you should come home

A|-12-12-12----------------12----12-12-12--------------12---|
E|-------------------------10--------------------------10---|
C|----------------------------------------------------------|
G|-------------7----7--7--------------------7---7-7---------|
 And I don't want you to (Go), I don't really wanna (Fight)

A|--12-12-12-------------12----------------5----9--------7--|
E|-----------------------10----7-----7-------------------9--|
C|-------------------------------------------------------9--|
G|-------------7--7--7--------------------------------------|
'Cause nobody's gonna (Win), just thought you should know

A|-12-12-12----------------12----12-12-12--------------12---|
E|-------------------------10--------------------------10---|
C|----------------------------------------------------------|
G|-------------7----7--7--------------------7---7-7---------|
 And I'll never let you (Go) 'cause I know this is a (Fight)

A|-12-12-12----------------12--|
E|-------------------------10--|
C|-----------------------------|
G|-------------7----7--7-------|
 That someday we're gonna (Win)|


Chorus:

A|-5----7---7--9--x--7-----7---7-----9-x-|--5----7---7--7--7----9--5------5----5--7----7---9------4p2-|
E|-3--------------x--2-----------------x-|-------9--------------------------------9-------------------|
C|-2--------------x--2-----------------x-|-------9--------------------------------9-------------------|
G|-0--------------x--4-----------------x-|-------9--------------------------------9-------------------|
 It's you and me, that's my whole world | They whisper in the hallway, "She's a bad, bad girl" (Okay)|

A|-2---4------2----0----5--5----5----0--|--0---0----5--9----7-----0---0----5-9---4-5--|
E|-3--------------------2---------------|------0----------------------0---------------|
C|-2--------------------2---------------|------1----------------------1---------------|
G|-0--------------------4---------------|------2----------------------2---------------|
 The whole school is rolling fake dice | You play stupid games, you win stupid prizes|


A|-5----7---7--9--x--7------7--7----7----9-x-|--7---7-7-7-9-5--5---5----7---7------9------4p2-|
E|-3--------------x---------2--------------x-|--9-----------------------9---------------------|
C|-2--------------x---------2--------------x-|--9-----------------------9---------------------|
G|-0--------------x---------4--------------x-|--9-----------------------9---------------------|
 It's you and me, there's nothing like this | Miss Americana and The Heartbreak Prince (Okay)|

A|-2----4---2---0----5----5----5----0--|--0-0---9----7--0---0--5---9-7----5\2--|
E|-3-----------------2-----------------|--0--------------------------2---------|
C|-2-----------------2-----------------|--1--------------------------2---------|
G|-0-----------------4-----------------|--2--------------------------4---------|
 We're so sad, we paint the town blue | Voted most likely to run away with you|


Post-Chorus:

A|-12-12-12----------------12----12-12-12--------------12---|
E|-------------------------10--------------------------10---|
C|----------------------------------------------------------|
G|-------------7----7--7--------------------7---7-7---------|
 And I don't want you to (Go), I don't really wanna (Fight)|

A|--12-12-12-------------12----------------5----9-------7--|
E|-----------------------10----7-----7-------------------9-|
C|-------------------------------------------------------9-|
G|-------------7--7--7-------------------------------------|
 'Cause nobody's gonna (Win), just thought you should know|

A|-12-12-12----------------12----12-12-12--------------12---|
E|-------------------------10--------------------------10---|
C|----------------------------------------------------------|
G|-------------7----7--7--------------------7---7-7---------|
 And I don't want you to (Go), I don't really wanna (Fight)|

A|--12-12-12-------------12------------------5----9-----7--|
E|-----------------------10-----7------7----------------9--|
C|------------------------------------------------------9--|
G|-------------7--7--7-------------------------------------|
 'Cause nobody's gonna (Win), just thought you should know|


Outro:

A|-5----7---7--9-----7-----7---7-----9---|--5----7---7--7--7----9--5------5----5--7----7---9------4p2-|
E|-3-----------------2-------------------|-------9--------------------------------9-------------------|
C|-2-----------------2-------------------|-------9--------------------------------9-------------------|
G|-0-----------------4-------------------|-------9--------------------------------9-------------------|
 It's you and me, that's my whole world | They whisper in the hallway, "She's a bad, bad girl" (Okay)|

A|--5----5--7----7---9---|
E|-----------------------|
C|-----------------------|
G|-----------------------|
 "She's a bad, bad girl"|

************************************

| x  Dead note
| h  Hammer-on
| p  Pull-off
| /  Slide up
| \  Slide down
| ~  Vibrato

************************************

Almost there ...

Sign in to get your own page with links to favourite songs and more. You are just one click away...

Login with Facebook Login with Google