Log in

One click and you are in

Login with Facebook Login with Google

Why sign up and log in

Guitar Tabs Explorer
Taylor Swift bass tabs for Mine

Bass tabs

Mine - Taylor Swift
-------------------------------------------------------------------------------

Tabbed By : Dylan Eurich
e-mail: Dyl.eurich@gmail.com
Tuning: EADG

Listen to the song with headphones in so you can hear how the bass goes,
it is a little soft, but most of this should be right. its all in the song.

No Bass Until 0.34 seconds, or the Pre-chorus to be exact


Pre-Chorus (x3)      Play this at the end of 3rd time
G|------------------|-------------------------------------------------------|
D|------5~----------|---9h10-9----------------------------------------------|
A|--3~/---5~--------|----------10-10----5~----------------------------------|
E|------------------|-------------------------------------------------------|


Chorus (x2)                 Play this after 2nd time
G|-----------------------------------------|--------------------------------|
D|-----------------------------------------|---------10-10-10-10------------|
A|--33333333----------55555555----7-7--5-5-|--3~-3~-------------------------|
E|-----------33333333----------------------|----------------------8-8-------|


Verse - come in at flash forward
G|--------------------------------------------------------------------------|
D|-----5~---------------------------------5~--------------------------------|
A|--------5~----7-7---3~-----5---05---3~------5~---7-7---3~------5~---------|
E|----------------------3-3---------------------------------3-3-------------|

Pre-Chorus
G|-------------------------------------------------------------------------|
D|------5~-----------------5~----------------------------------------------|
A|--3~/---5~--0-5-0-5-0-3~/---375~-0-5-0-5-0-3~----5~----------------------|
E|-----------------------------------------------3~------------------------|


Pre-Chorus Cont.
G|--------------------------------------------------------------------------|
D|--------9-9h10p9----------------------------------------------------------|
A|--10-12----------10-10-9-7-5----------------------------------------------|
E|--------------------------------------------------------------------------|


Chorus (x2)
G|--------------------------------------------------------------------------|
D|--------------------------------------------------------------------------|
A|--33333333----------55555555----7-7--5-5----------------------------------|
E|-----------33333333-------------------------------------------------------|

G|--------------------------------------------------------------------------|
D|-----------555-0-5--------------------------------------------------------|
A|--33333330---------0-5-0-55555555---7-7--5-5------------------------------|
E|--------------------------------------------------------------------------|

Post - Chorus (x2)
G|--------------------------------------------------------------------------|
D|-----3~-------------------------------------------------------------------|
A|--3~-----3h5--------------------------------------------------------------|
E|--------------------------------------------------------------------------|


Bridge
G|--------------------------------------------------------------------------|
D|-------------------7h9p7--------------------------------------------------|
A|---7~----3~----5~-------9--7~----3~-------5~------------------------------|
E|--------------------------------------------------------------------------|


Pre-Chorus (x3)      Play this at the end of 3rd time
G|------------------|-------------------------------------------------------|
D|------5~----------|---9h10-9----------------------------------------------|
A|--3~/---5~--------|----------10-12-10-5-3~--------------------------------|
E|------------------|-------------------------------------------------------|


Chorus - First time no bass
G|-----------------0-3-0-55555-3--------------------------------------------|
D|-----------55555---------------5-3----------------------------------------|
A|--33333333--------------------------555555/0------------------------------|
E|--------------------------------------------------------------------------|

(x2)
G|--------------------------------------------------------------------------|
D|--------------------------------------------------------------------------|
A|--33333333----------55555555-7-7--5-5-------------------------------------|
E|-----------33333333-------------------------------------------------------|

G|--------------------------------------------------------------------------|
D|--------------------------------------------------------------------------|
A|--33333333-----------5555555555555555-------------------------------------|
E|-----------33333333-------------------------------------------------------|

(this part might be a little off, i couldnt get it exactly
G|--------------------------------------------------------------------------|
D|------5~-0-5---------------------5~-0-5----9h10p9-------------------------|
A|--333-------5~-555--7775--3---333--------5~--------10-9-------------------|
E|--------------------------------------------------------------------------|

G|--------------------------------------------------------------------------|
D|------5~-0-5------7-9-10--9h10p9------------------------------------------|
A|--333--------5~------------------10-12-10-9-5~----------------------------|
E|--------------------------------------------------------------------------|




| / slide up
| \ slide down
| h hammer-on
| p pull-off
| ~ vibrato
| + harmonic
| x Mute note

Almost there ...

Sign in to get your own page with links to favourite songs and more. You are just one click away...

Login with Facebook Login with Google