Search tabs and chords

Search for song, artist or band

Log in

One click and you are in

Login with Facebook Login with Google

Why sign up and log in

Guitar Tabs Explorer
Taylor Swift guitar tabs for Mine acoustic

Guitar tabs with lyrics

  • Capo on 3rd
Intro:
-----------7-----------------4--------|
-----5---5-----5--7--5--5-------7-----|
-------4-----4--4--4--4-------4-------|
--------------------------------------|
--------------------------------------|
--------------------------------------|
-----------7-----------------7--------|
-----5---5-----5---4----4--------4----|
-------4-----4--4--4--4---4----4------|
--------------------------------------|
--------------------------------------|
--------------------------------------|


-----------7-----------------4--------|
-----5---5-----5--7--5--5-------7-----|
-------4-----4--4--4--4-------4-------|
--------------------------------------|
--------------------------------------|
--------------------------------------|


-----------7-----------------7--------|
-----5---5-----5---4----4--------4----|
-------4-----4--4--4--4---4----4------|
--------------------------------------|
--------------------------------------|
--------------------------------------|

VERSE I

You were in college working part time waiting tables..
-----0-----0------0------0-----0-----0----|
-------4-----4------4------4-----4-----4--|
---------2-----2-------------4-----4------|
------------------------------------------|
------------------------------------------|
------------------------------------------|

Pre Chorus

I say can you believe it?
-----------7-----------------4--------|
-----5---5-----5--7--5--5-------7-----|
-------4-----4--4--4--4-------4-------|
--------------------------------------|
--------------------------------------|
--------------------------------------|
                 As we're lying on the couch
-----------7----------------7---------|
-----5---5-----5---7--5---5-----5-----|
-------4-----4--4---4---4-----4-------|
--------------------------------------|
--------------------------------------|
--------------------------------------|

-----------7-----------------4--------|
-----5---5-----5--7--5--5-------7-----|
-------4-----4--4--4--4-------4-------|
--------------------------------------|
--------------------------------------|
--------------------------------------|

-----------7-------2------------------|
-----5---5-----5---4------------------|
-------4-----4--4--4------------------|
--------------------------------------|
--------------------------------------|
--------------------------------------|

CHORUS

Do you remember we were sitting there by the water?
---7-----7-----7-----------------------|
-----5-----5-----5---------------------|
-------4-----4-------------------------|    (2x)
---------------------------------------|
---------------------------------------|
---------------------------------------|

You put your arm around me for the first time..
---7-----7-----7--------------------------|
-----4-----4-----4-----5-5-4-4------------|
-------4-----4---------4-4-4-4------------|
-----------------------2-2-2-2------------|
-----------------------2-2-2-2------------|
------------------------------------------|

You made a rebel of a careless man's careful daughter
---7-----7-----7-----------------------|
-----5-----5-----5---------------------|
-------4-----4-------------------------|    (2x)
---------------------------------------|
---------------------------------------|
---------------------------------------|

You are the best thing that's ever been mine..
---7-----7-----7--------------------------|
-----4-----4-----4-----5-5-4-4------------|
-------4-----4---------4-4-4-4------------|
-----------------------2-2-2-2------------|
-----------------------2-2-2-2------------|
------------------------------------------|


    ----7--------------|
    ------5------------|
    --------8--(5x)----|
    -------------------|
    -------------------|
    -------------------|

Verse II

Flash forward and we're taking on the world together
----------------|
---5----5-------|
---4----4-------|
---4----4-------|
----------------|
----------------|

And there's a drawer of my things at your place
----0--0--0-----0---0---0--------------|
-----0--0--0-----4---4---4-------------|
------2--2--------4---4----------------|
---------------------------------------|
---------------------------------------|
---------------------------------------|

repeat pre chorus and chorus

bridge:

And I remember that fight, 2:30 a.m
---7-----7-----7-----------------------|
-----5-----5-----5---------------------|
-------4-----4-------------------------|    (2x)
---------------------------------------|
---------------------------------------|
---------------------------------------|

As everything was slipping right out of our hands
---7-----7-----7--------------------------|
-----4-----4-----4------------------------|
-------4-----4----------------------------|    (2x)
------------------------------------------|
------------------------------------------|
------------------------------------------|

I ran out crying and you followed me out into the street
----7-----7-----7----------------7----7----7----|
------5-----5-----6----(2x)--------4----4----4--|
--------6-----6----------------------4----4-----|
------------------------------------------------|
------------------------------------------------|
------------------------------------------------|

repeat bridge pluck

Other versions of Mine Acoustic

MineChords
Mine (Ver. 2)Chords
Mine (Ver. 3)Chords
Mine ukuleleChords
MineTabs
Mine (Ver. 2)Tabs

Almost there ...

Sign in to get your own page with links to favourite songs and more. You are just one click away...

Login with Facebook Login with Google