Log in

One click and you are in

Login with Facebook Login with Google

Why sign up and log in

Guitar Tabs Explorer
Taylor Swift bass tabs for Lover

Bass tabs

INTRO
G |-------------------|---------------------------|
D |---5-4-------------|------------2--------------|
A |-------0-2--3--3-3-|----------------5---3--3-3-|
E |-3-----------------|-0-2-3-3--3---3---3--------|


VERSE (repeats through most of the song, later ones have some added fills)
G |-----------------------|
D |-----------------------|
A |------------5---3--3-3-|
E |-0-2-3-3--3---3--------|


CHORUS (kicks in at "my, my, my, my, my...")
G |-----------|
D |-5-4-2-----|
A |-------5-3-|
E |-----------|


BRIDGE PART 1 (play twice)
G |--------------------|---------------------|--------------|
D |---5--5-4--4-2--2-4-|---2-4---------------|--------0-2-3-|
A |--------------------|-5-----3-3-3-2-2-2-0-|--0-2-3-------|
E |-3------------------|---------------------|--------------|


BRIDGE PART 2
G |----------------------|--------------------------|--------------|
D |-5--0-2-3-------------|---7--7-7-----------------|--------0-2-3-|
A |-----------0-2-3--3-3-|-0---------0-2-3-5--5-5-5-|--0-2-3-------|
E |----------------------|--------------------------|--------------|

Other versions of Lover

Lover (Ver. 2)Bass tabs

Almost there ...

Sign in to get your own page with links to favourite songs and more. You are just one click away...

Login with Facebook Login with Google