Log in

One click and you are in

Login with Facebook Login with Google

Why sign up and log in

Guitar Tabs Explorer
Taylor Swift tabs for Love story

Solo tabs

intro and chords check out the others, this one is the "solo" part after 2nd chorus.

     A chord diagramE MajorE  A chord diagramE MajorE  A chord diagramE MajorE  A chord diagramE MajorE  A chord diagramE MajorE  A chord diagramE MajorE  A chord diagramE MajorE  A chord diagramE MajorE     A chord diagramE MajorE  A chord diagramE MajorE  A chord diagramE MajorE  A chord diagramE MajorE  A chord diagramE MajorE  A chord diagramE MajorE  Q
A chord diagramE MajorE||--------3-----2-----0-----|--------0-----2-----0----|
A chord diagramBB||--3--3-----3-----3-----3--|--3--3-----3-----3-------|
A chord diagramG+G||--------------------------|-------------------------|
A chord diagramD MajorD||--------------------------|-------------------------|
A chord diagramA augmentedA||--------------------------|-------------------------|
A chord diagramE MajorE||--------------------------|-------------------------|
  A chord diagramE MajorE  A chord diagramE MajorE  A chord diagramE MajorE  A chord diagramE MajorE  A chord diagramE MajorE  A chord diagramE MajorE  Q       A chord diagramE MajorE  A chord diagramE MajorE  A chord diagramE MajorE  A chord diagramE MajorE  A chord diagramE MajorE  A chord diagramE MajorE  A chord diagramE MajorE  A chord diagramE MajorE     A chord diagramE MajorE  A chord diagramE MajorE  A chord diagramE MajorE  A chord diagramE MajorE  A chord diagramE MajorE  A chord diagramE MajorE  A chord diagramE MajorE  A chord diagramE MajorE
--------0-----2-----0----|--------0-----------0-----|--3-----2-----0-----------|
--2--3-----3-----3-------|-----3-----3--2--3-----3--|-----3-----3-----3--3--3--|
-------------------------|--------------------------|--------------------------|
-------------------------|--------------------------|--------------------------|
-------------------------|--------------------------|--------------------------|
-------------------------|--------------------------|--------------------------|


  A chord diagramE MajorE  A chord diagramE MajorE  A chord diagramE MajorE  A chord diagramE MajorE  A chord diagramE MajorE  A chord diagramE MajorE  A chord diagramE MajorE  A chord diagramE MajorE     A chord diagramE MajorE  A chord diagramE MajorE  A chord diagramE MajorE  A chord diagramE MajorE  A chord diagramE MajorE  A chord diagramE MajorE  A chord diagramE MajorE  A chord diagramE MajorE
--------------------------|--0-----------------------|
--2--3--2--0--------------|-----3--3--2--2--0--0-----|
--------------2--0-----0--|-----------------------2--|
--------------------4-----|--------------------------|
--------------------------|--------------------------|
--------------------------|--------------------------|


  A chord diagramE MajorE  A chord diagramE MajorE  A chord diagramE MajorE  A chord diagramE MajorE  A chord diagramE MajorE  A chord diagramE MajorE  A chord diagramE MajorE  A chord diagramE MajorE
--------------------------||
-----------------------0--||
--2--0--0--------0--2-----||
-----------4--4-----------||
--------------------------||
--------------------------||



Duration 🏷Legend
---------------
W - whole
H - half
Q - quarter
A chord diagramE MajorE - 8th
S - 16th
T - 32nd

ⓘ Taylor Swift is a female a pop artist from Pennsylvania, USA. Taylor Swift was born in 1989. Taylor Swift is known for energetic rock/pop music.

Other versions of Love Story

Love story (Ver. 2)Chords
Love story (Ver. 4)Chords
Love story (Ver. 5)Chords
Love story (Ver. 6)Chords
Love story (Ver. 7)Chords
Love story - you belong with meChords
Love story ukuleleChords
Love story (Ver. 2)Tabs

Almost there ...

Sign in to get your own page with links to favourite songs and more. You are just one click away...

Login with Facebook Login with Google