Log in

One click and you are in

Login with Facebook Login with Google

Why sign up and log in

Guitar Tabs Explorer
Taylor Swift bass tabs for I forgot that you existed

I Forgot That You Existed bass tab by Taylor Swift

Taylor Swift bass tabs for I forgot that you existed

Bass tabs

Tuning: Standard (E A D G)


Verse 1:

G|-----------------------|
D|-----------------------|
A|-----------------------| x5
E|1---5---4/6---8--------|    strum on the 4 and the 6 throughout

G|-----------------------|
D|-----------------------|
A|-----------------------|
E|1---5---4/6----8--8-8--|

Pre-Chorus:

G|-----------------|
D|-----------------|
A|-8-7-5-----------|
E|---------6-5-8---|


Chorus:

G|-----------------------|
D|-----------------------|   switches from 8 on E to 3 on A bc of distance
A|--------------3--------|   from 1 on E needing to be played after extra strums
E|----5---4/6------------|

G|-----------------------|
D|-----------------------|
A|---------------3--3-3--|
E|1---5---4/6------------|

G|----------------------------------------------|
D|----------------------------------------------|
A|--------------3----------------------3--3-3---| x2
E|1---5---4/6------------1---5---4/6------------|


Verse 2:

G|----------------------------------------------|
D|----------------------------------------------|
A|--------------3----------------------3--------|
E|----5---4/6------------1---5---4/6------------|

G|----------------------------------------------|
D|----------------------------------------------|
A|--------------3----------------------3--3-3---|
E|1---5---4/6------------1---5---4/6------------|


Pre-Chorus:

G|-----------------|
D|-----------------|
A|-8-7-5-----------|
E|---------6-5-8---|


Chorus:

G|----------------------------------------------|
D|----------------------------------------------|
A|--------------3----------------------3--3-3---|
E|----5---4/6------------1---5---4/6------------|

G|----------------------------------------------|
D|----------------------------------------------|
A|--------------3----------------------3--3-3---| x2
E|1---5---4/6------------1---5---4/6------------|


Bridge:

G|---14-------13-------11---11---|  (fourteen, thirteen, eleven, eleven)
D|-------------------------------|
A|-------------------------------|
E|-------------------------------|


Chorus:

G|----------------------------------------------|
D|----------------------------------------------|
A|--------------3----------------------3--3-3---| x3
E|1---5---4/6------------1---5---4/6------------|


************************************

| /  Slide up

************************************

So, yeah! This was my first tab :)
ⓘ Bass guitar tab for 'I Forgot That You Existed' by Taylor Swift, a female pop artist from Pennsylvania, USA. Taylor Swift was born in 1989. Taylor Swift is known for her energetic rock/pop music.

Almost there ...

Sign in to get your own page with links to favourite songs and more. You are just one click away...

Login with Facebook Login with Google