Log in

One click and you are in

Login with Facebook Login with Google

Why sign up and log in

Guitar Tabs Explorer
Taylor Swift bass tabs for Hey stephen

Bass tabs

----------------------------
 HEY STEPHEN by TAYLOR SWIFT
----------------------------

Album: Fearless
Tuning: Standard EADG:



INTRO

G|-------------------------------------------------------|
D|-------------------------------------------------------|
A|-------2------------2------------2------------22-------|
E|-2---4-----4-22---4-----4-22---4-----4-22---4-----4-42-|


1ST VERSE

G|---------------------------------------------------|
D|---------------------------------------------------|
A|---2------------2------------2------------22-------|
E|-4-----4-22---4-----4-22---4-----4-22---4-----4-42-|


G|-----------------------------------------------------|
D|-----------------------------------------------------|
A|---2------------2------------2------------22--22h4-2-|
E|-4-----4-22---4-----4-22---4-----4-22---4------------|


CHORUS

G|--------------------------------------------------------------|
D|-------------------------------------------------4------------|
A|--------2-24-4--------2-22-4-6-66--------------46--642-22-2-4-|
E|-2--224--------2--224-------------469-99\(2)-2-------------4--|

POST-CHORUS

G|-----------------------------------|
D|-----------------------------------|
A|--------22--22----------22--22-----|
E|-2--224-------4-22--224-------4-42-|


2ND VERSE

G|-------------------------------------------------------------------|
D|-------------------------------------------------------------------|
A|-----22--22----------22--22----------22--22----------22--22--------|
E|-224-------4-22--224-------4-22--224-------4-22--224-------4-42----|


G|----------------------------------------------------------------|
D|----------------------------------------------------------------|
A|-----22--22----------22--22----------22--22----------22--22h4-2-|
E|-224-------4-22--224-------4-22--224-------4-22--224------------|


CHORUS

G|------------------------------------------------------------------|
D|-------------------------------------------------4-4\-------------|
A|--------2-24-4--------2-22-4-6-66--------------46-6---2-22-2-4-44-|
E|-2--224--------2--224-------------469-99\(2)-2--------------4-----|


POST-CHORUS

G|-----------------------------------|
D|-----------------------------------|
A|--------22--22----------22--22-4-6-|
E|-2--224-------4-22--224------------|


BRIDGE

G|----------------------------------------------------------------------------------|
D|----------------------------4-6h8-------------------4-44--------------------------|
A|-66--------------------2-4h6-----6-66-6\(4)-4-44-4h6----64\(2)-2-22---4---------4-|
E|----469-99\(2)-2-22-2h4--------------------------------------------42-------------|


3RD VERSE

G|------------------------|
D|------------------------|
A|--------22--22------4-2-|
E|-4-2--4-------4-42------|


CHORUS

G|-----------------------------------------------------------------------|
D|-------------------------------------------------4-----------4---------|
A|--------2-24-4--------2-22-4-6-66--------------46--642-22-4h6-6-4-44-4-|
E|-2--224--------2--224-------------469-99\(2)-2-------------------------|


G|----------------------------------------------------------------|
D|----------------------------------------------------89----------|
A|--------2-24-4--------2-22-4-6-66---4-44/(9)-9-99911---1192-2-4-|
E|-2--224--------2--224-------------46----------------------------|


OUTRO

G|-------------------------------------------------------------------|
D|-------------------------------------------------------------------|
A|-----22--22----------22--22----------22--22----------22--22--------|
E|-224-------4-22--224-------4-22--224-------4-22--224-------4-42----|


G|--------------------------------------------------------13-11-|
D|--------------------------------------------6-4---------------|
A|-----22--22----------22--22----------22-----------------------|
E|-224-------4-22--224-------4-22--224--------------------------|


| / slide up
| \ slide down
| h hammer-on
| p pull-off
| ~ vibrato
| + harmonic
| x Mute note
ⓘ Bass guitar tab for 'Hey Stephen' by Taylor Swift, a female pop artist from Pennsylvania, USA. Taylor Swift was born in 1989. Taylor Swift is known for her energetic rock/pop music.

Almost there ...

Sign in to get your own page with links to favourite songs and more. You are just one click away...

Login with Facebook Login with Google