Log in

One click and you are in

Login with Facebook Login with Google

Why sign up and log in

Guitar Tabs Explorer
Taylor Swift bass tabs for Gold rush

Bass tabs with lyrics

Tuning: Standard (E A D G)


Intro:

*break*

 Gleaming, twinkling / Eyes like sinking
 Ships on waters / So inviting I almost jump in

Chorus:

 I don't like a gold rush, gold rush / I don't like anticipating my face in a red flush
 I don't like that anyone would die to feel your touch
 Everybody wants you / Everybody wonders what it would be like to love you
 Walk past, quick brush / I don't like slow motion, double vision in rose blush
 I don't like that falling feels like flying till the bone crush
 Everybody wants you / But I don't like a gold rush

G|-----------------|-----------------|-----------------|-----------------|
D|-4-4-4-4-4-4-4-4-|-4-4-4-4-4-4-4-4-|-----------------|-----------------|
A|-----------------|-----------------|-5-5-5-5-5-5-5-5-|-5-5-5-5-5-5-5-5-|
E|-----------------|-----------------|-----------------|-----------------|

G|-----------------|-----------------|-----------------|-----------------|
D|-----------------|-----------------|-----------------|-----------------|
A|-4-4-4-4-4-4-4-4-|-4-4-4-4-4-4-4-4-|-----------------|-----------------|
E|-----------------|-----------------|-0-0-0-0-0-0-0-0-|-0-0-0-0-0-0-0-0-|

G|-----------------|-----------------|-----------------|-----------------|
D|-4-4-4-4-4-4-4-4-|-4-4-4-4-4-4-4---|-----------------|-----------------|
A|-----------------|---------------4-|-5-5-5-5-5-5-5-5-|-5-5-5-5-5-5-5-5-|
E|-----------------|-----------------|-----------------|-----------------|

G|-----------------|-----------------|-----------------|-----------------|
D|-----------------|-----------------|-----------------|-----------------|
A|-4-4-4-4-4-4-4-4-|-4-4-4-4-4-4-4-4-|-7-7-7-7-7-7-7-7-|-7-7-7-7-7-7-7-7-|
E|-----------------|-----------------|-----------------|-----------------|


Verse 1:

 What must it be like to grow up that beautiful? / With your hair falling into place like dominos
 I see me padding across your wooden floors / With my Eagles t-shirt hanging from the door
 At dinner parties I call you out on your contrarian shit
 And the coastal town we wandered 'round had nevеr seen a love as pure as it
 And then it fadеs into the gray of my day old tea / 'Cause it won't, could never be

G|-----------------|------------------|-----------------|-----------------|
D|-----------------|------------------|-----------------|-----------------|
A|-----------------|-/5-----5-5---5---|-----------------|-----------------|
E|-3-----3-3---3---|------------------|-5-----5-5---5---|-5-----5-5---5---|

G|-----------------|------------------|-----------------|-----------------|
D|-----------------|------------------|-----------------|-----------------|
A|-----------------|-/5-5-5-5-5-5-5-5-|-----------------|-----------------|
E|-3-----3-3---3---|------------------|-5-5-5-5-5-5-5-5-|-5-5-5-5-5-5-5-5-|

G|-----------------|------------------|-----------------|-----------------|
D|-----------------|------------------|-----------------|-----------------|
A|-----------------|-/5-5-5-5-5-5-5-5-|-----------------|-----------------|
E|-3-3-3-3-3-3-3-3-|------------------|-5-5-5-5-5-5-5-5-|-5-5-5-5-5-5-5-5-|

G|-----------------|------------------|-----------------|-----------------|
D|-----------------|------------------|-----------------|-----------------|
A|-----------------|-/9-9-9-9-9-9-9-9-|-7-7-7-7-7-7-7-7-|-7-7-7-7-7-7-7-7-|
E|-3-3-3-3-3-3-3-3-|------------------|-----------------|-----------------|


Chorus:

 'Cause I don't like a gold rush, gold rush / I don't like anticipating my face in a red flush
 I don't like that anyone would die to feel your touch
 Everybody wants you / Everybody wonders what it would be like to love you
 Walk past, quick brush / I don't like slow motion. double vision in rose blush
 I don't like that falling feels like flying till the bone crush
 Everybody wants you / But I don't like a gold rush

G|-----------------|-----------------|-----------------|-----------------|
D|-----------------|-----------------|-----------------|-----------------|
A|-----------------|-----------------|-5-5-5-5-5-5-5-5-|-5-5-5-5-5-5-5-5-|
E|-----------------|-----------------|-----------------|-----------------|

G|-----------------|-----------------|-----------------|-----------------|
D|-----------------|-----------------|-----------------|-----------------|
A|-4-4-4-4-4-4-4-4-|-4-4-4-4-4-4-4-4-|-----------------|-----------------|
E|-----------------|-----------------|-0-0-0-0-0-0-0-0-|-0-0-0-0-0-0-0-0-|

G|-----------------|-----------------|-----------------|-----------------|
D|-4-4-4-4-4-4-4-4-|-4-4-4-4-4-4-4---|-----------------|-----------------|
A|-----------------|---------------4-|-5-5-5-5-5-5-5-5-|-5-5-5-5-5-5-5-5-|
E|-----------------|-----------------|-----------------|-----------------|

G|-----------------|-----------------|-----------------|-----------------|
D|-----------------|-----------------|-----------------|-----------------|
A|-4-4-4-4-4-4-4-4-|-4-4-4-4-4-4-4-4-|-7-7-7-7-7-7-7-7-|-7-7-7-7-7-7-7-7-|
E|-----------------|-----------------|-----------------|-----------------|


Verse 2:

 What must it be like to grow up that beautiful? / With your hair falling into place like dominos
 My mind turns your life into folklore / I can't dare to dream about you anymore
 At dinner parties I won't call you out on your contrarian shit
 And the coastal town we never found will never see a love as pure as it
 'Cause it fades into the gray of my day old tea / 'Cause it will never be

G|-----------------|------------------|-----------------|-----------------|
D|-----------------|------------------|-----------------|-----------------|
A|-----------------|-/5-----5-5---5---|-----------------|-----------------|
E|-3-----3-3---3---|------------------|-5-----5-5---5---|-5-----5-5---5---|

G|-----------------|------------------|-----------------|-----------------|
D|-----------------|------------------|-----------------|-----------------|
A|-----------------|-/5-5-5-5-5-5-5-5-|-----------------|-----------------|
E|-3-----3-3---3---|------------------|-5-5-5-5-5-5-5-5-|-5-5-5-5-5-5-5-5-|

G|-----------------|------------------|-----------------|-----------------|
D|-----------------|------------------|-----------------|-----------------|
A|-----------------|-/5-5-5-5-5-5-5-5-|-----------------|-----------------|
E|-3-3-3-3-3-3-3-3-|------------------|-5-5-5-5-5-5-5-5-|-5-5-5-5-5-5-5-5-|

G|-----------------|------------------|-----------------|-----------------|
D|-----------------|------------------|-----------------|-----------------|
A|-----------------|-/9-9-9-9-9-9-9-9-|-7-7-7-7-7-7-7-7-|-7-7-7-7-7-7-7-7-|
E|-3-3-3-3-3-3-3-3-|------------------|-----------------|-----------------|


Outro:

*break*

 Gleaming, twinkling / Eyes like sinking
 Ships on waters / So inviting I almost jump in


************************************

| /  Slide up

************************************
ⓘ Bass guitar tab for 'Gold Rush' by Taylor Swift, a female pop artist from Pennsylvania, USA. Taylor Swift was born in 1989. Taylor Swift is known for her energetic rock/pop music.

Almost there ...

Sign in to get your own page with links to favourite songs and more. You are just one click away...

Login with Facebook Login with Google