Log in

One click and you are in

Login with Facebook Login with Google

Why sign up and log in

Guitar Tabs Explorer
Taylor Swift bass tabs for Everything has changed

Everything Has Changed bass tab by Taylor Swift

Taylor Swift bass tabs for Everything has changed

Bass tabs

This whole song is pretty much constructed entirely of ghost notes.
Very hard to hear, so some parts may not be perfect, but whatever :]]

 Pre-Chorus 0:32
G|-----------------------------------------------------------------|
D|-----------------------------------------------------------------|
A|-----------------------------------------------------------------|
E|-2-------------------------------4-------------------------------|
  1 e + a 2 e + a 3 e + a 4 e + a 1 e + a 2 e + a 3 e + a 4 e + a

G|-----------------------------------------------------------------|
D|-----------------------------------------------------------------|
A|-2---------------------------/---6---------------4-4-4-4-4-4-4-4-|
E|-----------------------------------------------------------------|
  1 e + a 2 e + a 3 e + a 4 e + a 1 e + a 2 e + a 3 e + a 4 e + a

G|-----------------------------------------------------------------|
D|-----------------------------------------------------------------|
A|-----------------------------------------------------------------|
E|-2-------------------------------4-------------------------------|
  1 e + a 2 e + a 3 e + a 4 e + a 1 e + a 2 e + a 3 e + a 4 e + a

G|-----------------------------------------------------------------|
D|-----------------------------------------------------------------|
A|-2---------------------------/---6---------------4---4---4-4-4-4-|
E|-----------------------------------------------------------------|
  1 e + a 2 e + a 3 e + a 4 e + a 1 e + a 2 e + a 3 e + a 4 e + a

 Chorus 0:56
G|-----------------------------------------------------------------|
D|-----------------------------------------------------------------|
A|-----------------------------4---6-------6-----------6---6---6---|
E|-2-------2-----------2---2---------------------------------------|
  1 e + a 2 e + a 3 e + a 4 e + a 1 e + a 2 e + a 3 e + a 4 e + a

G|-----------------------------------------------------------------|
D|-----------------------------------------------------------------|
A|-4-------4-----------4---4---4---2-------2-----------2---2-4-----|
E|-----------------------------------------------------------------|
  1 e + a 2 e + a 3 e + a 4 e + a 1 e + a 2 e + a 3 e + a 4 e + a

G|-----------------------------------------------------------------|
D|-----------------------------------------------------------------|
A|-----------------------------4---6-------6-----------6---6---6---|
E|-2-------2-----------2---2---------------------------------------|
  1 e + a 2 e + a 3 e + a 4 e + a 1 e + a 2 e + a 3 e + a 4 e + a

G|-----------------------------------------------------------------|
D|-----------------------------------------------------------------|
A|-4-------4-------4---4---4---4---2-------------------------------|
E|-----------------------------------------------------------------|
  1 e + a 2 e + a 3 e + a 4 e + a 1 e + a 2 e + a 3 e + a 4 e + a

 1:20
G|-----------------------------------------------------------------|
D|-----------------------------------------------------------------|
A|-----------------------------------------------------------------|
E|-2-------------------------------2-------------------------------|
  1 e + a 2 e + a 3 e + a 4 e + a 1 e + a 2 e + a 3 e + a 4 e + a

 1:26 Ed's Verse
G|-----------------------------------------------------------------|
D|-----------------------------------------------------------------|
A|-----------------------------4---6-------------------------------|
E|-2---------------------------------------------------------------|
  1 e + a 2 e + a 3 e + a 4 e + a 1 e + a 2 e + a 3 e + a 4 e + a

G|-----------------------------------------------------------------|
D|-----------------------------------------------------------------|
A|-2-------------------------------4-------------------------------|
E|-----------------------------------------------------------------|
  1 e + a 2 e + a 3 e + a 4 e + a 1 e + a 2 e + a 3 e + a 4 e + a

 1:38 Taylor's Verse
G|-----------------------------------------------------------------|
D|-----------------------------------------------------------------|
A|-----------------------------4---6---------------------------0---|
E|-2---------------------------------------------------------------|
  1 e + a 2 e + a 3 e + a 4 e + a 1 e + a 2 e + a 3 e + a 4 e + a

G|-----------------------------------------------------------------|
D|-----------------------------------------------------------------|
A|-2-------------------------------4---------------------------4---|
E|-----------------------------------------------------------------|
  1 e + a 2 e + a 3 e + a 4 e + a 1 e + a 2 e + a 3 e + a 4 e + a

 Pre-Chorus 1:50
G|-----------------------------------------------------------------|
D|-----------------------------------------------------------------|
A|-------------------------------------------------------------0---|
E|-2---------------------------2---4-------------------------------|
  1 e + a 2 e + a 3 e + a 4 e + a 1 e + a 2 e + a 3 e + a 4 e + a

G|-----------------------------------------------------------------|
D|-----------------------------------------------------------------|
A|-2---------------------------/---6---------------4-4-4-4-4-4-4-4-|
E|-----------------------------------------------------------------|
  1 e + a 2 e + a 3 e + a 4 e + a 1 e + a 2 e + a 3 e + a 4 e + a

G|-----------------------------------------------------------------|
D|-----------------------------------------------------------------|
A|---------------------------------------------------------------0-|
E|-2-----------------------------2-4-------------------------------|
  1 e + a 2 e + a 3 e + a 4 e + a 1 e + a 2 e + a 3 e + a 4 e + a

G|-----------------------------------------------------------------|
D|-----------------------------------------------------------------|
A|-2---------------------------/---6-------------------------------|
E|-----------------------------------------------------------------|
  1 e + a 2 e + a 3 e + a 4 e + a 1 e + a 2 e + a 3 e + a 4 e + a

 Chorus 2:14
G|-----------------------------------------------------------------|
D|-----------------------------------------------------------------|
A|-----------------------------2---6-------6-----------6---6---6---|
E|-2-------2---------------2-4-------------------------------------|
  1 e + a 2 e + a 3 e + a 4 e + a 1 e + a 2 e + a 3 e + a 4 e + a

G|-----------------------------------------------------------------|
D|-----------------------------------------------------4---4h6p4---|
A|-4-------4-----------4---4---4---2-------2-----------------------|
E|-----------------------------------------------------------------|
  1 e + a 2 e + a 3 e + a 4 e + a 1 e + a 2 e + a 3 e + a 4 e + a

G|-----------------------------------------------------------------|
D|-----------------------------------------------------------------|
A|-----------------------------2---6-------6-----------6---6---6---|
E|-2---------------------2-2-4-------------------------------------|
  1 e + a 2 e + a 3 e + a 4 e + a 1 e + a 2 e + a 3 e + a 4 e + a

G|-----------------------------------------------------------------|
D|-----------------------------------------------------------------|
A|-4-------4-----------4---4---4---2-------2---------------2-4-4-4-|
E|-----------------------------------------------------2-2---------|
  1 e + a 2 e + a 3 e + a 4 e + a 1 e + a 2 e + a 3 e + a 4 e + a

 2:38 Bridge
G|-----------------------------------------------------------------|
D|-----------------------------------------------------------------|
A|-----------------------------------------------------------------|
E|-----------------------------------------------------------------|
  1 e + a 2 e + a 3 e + a 4 e + a 1 e + a 2 e + a 3 e + a 4 e + a

G|-----------------------------------------------------------------|
D|-----------------------------------------------------------------|
A|---------------------------------------------------------2---4---|
E|-----------------------------------------------------------------|
  1 e + a 2 e + a 3 e + a 4 e + a 1 e + a 2 e + a 3 e + a 4 e + a

G|-----------------------------------------------------------------|
D|-----------------------------------------------------------------|
A|-6-------------------------------2---------------------------4---|
E|-----------------------------------------------------------------|
  1 e + a 2 e + a 3 e + a 4 e + a 1 e + a 2 e + a 3 e + a 4 e + a

G|-----------------------------------------------------------------|
D|-4---------------------------------------------------------------|
A|---------------------------------4-------------------------------|
E|-----------------------------------------------------------------|
  1 e + a 2 e + a 3 e + a 4 e + a 1 e + a 2 e + a 3 e + a 4 e + a

Rest

 Chorus 3:14
G|-----------------------------------------------------------------|
D|-----------------------------------------------------------------|
A|-----------------------------2---6-------6-----------6---6---6---|
E|-2-------2-----------2---2-4-------------------------------------|
  1 e + a 2 e + a 3 e + a 4 e + a 1 e + a 2 e + a 3 e + a 4 e + a

G|-----------------------------------------------------------------|
D|-----------------------------------------------------------------|
A|-4-------4-----------4---4---4---2-------2-------------------4-6-|
E|-----------------------------------------------------------------|
  1 e + a 2 e + a 3 e + a 4 e + a 1 e + a 2 e + a 3 e + a 4 e + a

G|-----------------------------------------------------------------|
D|-----------------------------------------------------------------|
A|-9-\-\-----------------------2---6-------6-----------6---6---6---|
E|---------2-------------------------------------------------------|
  1 e + a 2 e + a 3 e + a 4 e + a 1 e + a 2 e + a 3 e + a 4 e + a

G|-----------------------------------------------------------------|
D|-----------------------------------------------------------------|
A|-4-------4-----------4---4---4---2-------2-----------------------|
E|-----------------------------------------------------------------|
  1 e + a 2 e + a 3 e + a 4 e + a 1 e + a 2 e + a 3 e + a 4 e + a

 Outro 3:38
G|-----------------------------------------------------------------|
D|-----------------------------------------------------------------|
A|-9-------------------------------6-------------------------------|
E|-----------------------------------------------------------------|
  1 e + a 2 e + a 3 e + a 4 e + a 1 e + a 2 e + a 3 e + a 4 e + a

G|-----------------------------------------------------------------|
D|---------------------------------------------------------2-4-4-6-|
A|-4-------------------------------2-------------------2-4---------|
E|-----------------------------------------------------------------|
  1 e + a 2 e + a 3 e + a 4 e + a 1 e + a 2 e + a 3 e + a 4 e + a

G|-----------------------------------------------------------------|
D|-4---4-----------------------------------------------------------|
A|-----------------------------4---6---6---6---6---6---6---6---6---|
E|---------2---2---2---2---2-4-------------------------------------|
  1 e + a 2 e + a 3 e + a 4 e + a 1 e + a 2 e + a 3 e + a 4 e + a

G|-----------------------------------------------------------------|
D|-----------------------------------------------------------------|
A|-4---4---4---4---4---4---4---4-----------------------------------|
E|---------------------------------7---\---------------------------|
  1 e + a 2 e + a 3 e + a 4 e + a 1 e + a 2 e + a 3 e + a 4 e + a

ⓘ Bass guitar tab for 'Everything Has Changed' by Taylor Swift, a female pop artist from Pennsylvania, USA. Taylor Swift was born in 1989. Taylor Swift is known for her energetic rock/pop music.

Almost there ...

Sign in to get your own page with links to favourite songs and more. You are just one click away...

Login with Facebook Login with Google