Log in

One click and you are in

Login with Facebook Login with Google

Why sign up and log in

Guitar Tabs Explorer
Taylor Swift bass tabs for Enchanted

Bass tabs

1:23 Pre-Chorus
F#|-----------------------------------------------------------------|
C#|-----------------------------------------------------------------|
G#|-5-5-5-5-5-5-5-9-------------------------------------------------|
C#|-----------------4-4-4-4-4-4-4-4-2-2-2-2-2-2-2-2-2-2-2-2-2-2-2---|
  1 + 2 + 3 + 4 + 1 + 2 + 3 + 4 + 1 + 2 + 3 + 4 + 1 + 2 + 3 + 4 +

1:35 Chorus
F#|-----------------------------------------------------------------|
C#|-----------------------------------------------------------------|
G#|-----------------------------------------------------------------|
C#|-0-0-0-0-0-0-0-0-7-7-7-7-2-2-2-2-0-0-0-0-0-0-0-0-7-7-7-7-2-2-2-2-|
  1 + 2 + 3 + 4 + 1 + 2 + 3 + 4 + 1 + 2 + 3 + 4 + 1 + 2 + 3 + 4 +

F#|-----------------------------------------------------------------|
C#|-----------------------------------------------------------------|
G#|-----------------------------------------------------------------|
C#|-0-0-0-0-0-0-0-0-7-7-7-7-2-2-2-2-0-0-0-0-0-0-0-0-4-------2-------|
  1 + 2 + 3 + 4 + 1 + 2 + 3 + 4 + 1 + 2 + 3 + 4 + 1 + 2 + 3 + 4 +

F#|-------------------------------------------------|
C#|-------------------------------------------------|
G#|-----------------7-9-12----------9-7-\-\---------|
C#|-7-----------------------------------------------|
  1 + 2 + 3 + 4 + 1 + 2 + 3 + 4 + 1 + 2 + 3 + 4 +

2:04 Verse
F#|-----------------------------------------------------------------|
C#|-----------------------------------------------------------------|
G#|-------------------------------------------------------------9-7-|
C#|-7-7-7-7-7-7-7-7-6-6-6-6-6-6-6-6-7-7-7-7-7-7-7-7-7-7-7-7-7-7-----|
  1 + 2 + 3 + 4 + 1 + 2 + 3 + 4 + 1 + 2 + 3 + 4 + 1 + 2 + 3 + 4 +

F#|------------------------------------------------------------------|
C#|------------------------------------------------------------------|
G#|-------------9-7-------------7-7-5-5-5-5-5-5-5-5-------------467--|
C#|-7-7-7-7-7-7-----6-6-6-6-6-6---------------------7-7-7-7-7-7------|
  1 + 2 + 3 + 4 + 1 + 2 + 3 + 4 + 1 + 2 + 3 + 4 + 1 + 2 + 3 + 4 +

2:28 Pre-Chorus
F#|-------------------------------------------------------------------|
C#|---------------------------------5---------------------------------|
G#|-5-5-5-5-5-5-5-579-9-9-9-9-9-9-9---7-7-7-7-7-7-7-797-7-7-7-7-7-7-7-|
C#|-------------------------------------------------------------------|
  1 + 2 + 3 + 4 + 1 + 2 + 3 + 4 +  1 + 2 + 3 + 4 + 1 + 2 + 3 + 4 +

F#|-------------------------------------------------------------------|
C#|---------------------------------5---------------------------------|
G#|-5-5-5-5-5-5-5-579-9-9-9-9-9-9-9---7-7-7-7-7-7-7-79----------------|
C#|---------------------------------------------------2-2-2-252-2-2---|
  1 + 2 + 3 + 4 + 1 + 2 + 3 + 4 +  1 + 2 + 3 + 4 + 1 + 2 + 3 + 4 +

2:51 Chorus
F#|-----------------------------------------------------------------|
C#|-----------------------------------------------------------------|
G#|-----------------------------------------------------------------|
C#|-0-0-0-0-0-0-0-0-7-7-7-7-2-2-2-2-0-0-0-0-0-0-0-0-7-7-7-7-2-2-2-2-|
  1 + 2 + 3 + 4 + 1 + 2 + 3 + 4 + 1 + 2 + 3 + 4 + 1 + 2 + 3 + 4 +

F#|-----------------------------------------------------------------|
C#|-----------------------------------------------------------------|
G#|---------------------------------5-5-5-5-5-5-5-\-----------------|
C#|-0-0-0-0-0-0-0-0-7-7-7-7-2-2-2-2-----------------4-4-4-4-2-2-2-2-|
  1 + 2 + 3 + 4 + 1 + 2 + 3 + 4 + 1 + 2 + 3 + 4 + 1 + 2 + 3 + 4 +

F#|-----------------------------------------------------------------|
C#|-----------------------------------------------------------------|
G#|---------------------------------5-5-5-5-5-5-5-5-----------------|
C#|-0-0-0-0-0-0-0-0-7-7-7-7-2-2-2-2-----------------7-7-7-7-2-2-2-2-|
  1 + 2 + 3 + 4 + 1 + 2 + 3 + 4 + 1 + 2 + 3 + 4 + 1 + 2 + 3 + 4 +

F#|-----------------------------------------------------------------|
C#|-----------------------------------------------------------------|
G#|---------------------------------5-5-5-5-5-5-5-\-----------------|
C#|-0-0-0-0-0-0-0-0-7-7-7-7-2-2-2-2-----------------4-4-4-4-2-2-2-2-|
  1 + 2 + 3 + 4 + 1 + 2 + 3 + 4 + 1 + 2 + 3 + 4 + 1 + 2 + 3 + 4 +

3:38 Bridge
F#|-----------------------------------------------------------------|
C#|----------------------------------------------------------7-7----|
G#|-------------9-7-4-4-4-4-4-4-7-7-5-5-5-5-5-5-9-9-0-0-0-079-9-975-|
C#|-7-7-7-7-7-7-----------------------------------------------------|
  1 + 2 + 3 + 4 + 1 + 2 + 3 + 4 + 1 + 2 + 3 + 4 + 1 + 2 + 3 + 4 +

F#|-----------------------------------------------------------------|
C#|-----------------------------------------------------------------|
G#|-------------9-7-4-4-4-4-4-4-457-5-5-5-5-5-5-9-9-7-7-7-7-7-7-7-\-|
C#|-7-7-7-7-7-7-----------------------------------------------------|
  1 + 2 + 3 + 4 + 1 + 2 + 3 + 4 + 1 + 2 + 3 + 4 + 1 + 2 + 3 + 4 +

4:01
F#|-----------------------------------------------------------------|
C#|-------------------------------------0---0---4---4---4-----------|
G#|-5---5---5---5-7-9---9---7---7---5-----2---2-------------7---7---|
C#|-----------------------------------------------------------------|
  1 + 2 + 3 + 4 + 1 + 2 + 3 + 4 + 1 + 2 + 3 + 4 + 1 + 2 + 3 + 4 +

F#|-----------------------------------------------------------------|
C#|-----------------------------------------------------------------|
G#|-5---5---5---5---------------------------------------------------|
C#|---------------2-4-------2-------0---------------4-------2-------|
  1 + 2 + 3 + 4 + 1 + 2 + 3 + 4 + 1 + 2 + 3 + 4 + 1 + 2 + 3 + 4 +

4:25
F#|-----------------------------------------------------------------|
C#|-----------------------------------------------------------------|
G#|-----------------------------------------------------------------|
C#|-------------------------------------------------------------2-4-|
  1 + 2 + 3 + 4 + 1 + 2 + 3 + 4 + 1 + 2 + 3 + 4 + 1 + 2 + 3 + 4 +

F#|-----------------------------------------------------------------|
C#|-----------------------------------------------------247-7-------|
G#|-------------9-7-4-4-4-4-4-4-467-5-5-5-5-5-5-9-7-0-0-------7-\---|
C#|-7-7-7-7-7-7-----------------------------------------------------|
  1 + 2 + 3 + 4 + 1 + 2 + 3 + 4 + 1 + 2 + 3 + 4 + 1 + 2 + 3 + 4 +

4:48 Chorus
F#|-----------------------------------------------------------------|
C#|-----------------------------------------------------------------|
G#|---------------------------------------------------------7-7-7-7-|
C#|-0-0-0-0-0-0-0-0-7-7-7-7-2-2-2-2-0-0-0-0-0-0-0-0-7-7-7-7---------|
  1 + 2 + 3 + 4 + 1 + 2 + 3 + 4 + 1 + 2 + 3 + 4 + 1 + 2 + 3 + 4 +

F#|-----------------------------------------------------------------|
C#|-----------------------------------------------------------------|
G#|-----------------------------------------------------------------|
C#|-0-0-0-0-0-0-0-0-7-7-7-7-2-2-2-2-0-0-0-0-0-0-7-7-4-4-4-4-2-2-2-2-|
  1 + 2 + 3 + 4 + 1 + 2 + 3 + 4 + 1 + 2 + 3 + 4 + 1 + 2 + 3 + 4 +

F#|-----------------------------------------------------------------|
C#|---------------------------------------------------------2-------|
G#|---------------------------------5-5-5-5-5-5-5-5----------2------|
C#|-0-0-0-0-0-0-0-0-7-7-7-7-2-2-2-2-----------------7-7-7-7---2-4-2-|
  1 + 2 + 3 + 4 + 1 + 2 + 3 + 4 + 1 + 2 + 3 + 4 + 1 + 2 + 3 + 4 +

F#|-----------------------------------------------------------------|
C#|-----------------------------------------------------------------|
G#|-----------------------------------------------------------------|
C#|-0-0-0-0-0-0-0-0-7-7-7-7-2-2-2-2-0-0-0-0-0-0-0-0-4-4-4-2---2-2-2-|
  1 + 2 + 3 + 4 + 1 + 2 + 3 + 4 + 1 + 2 + 3 + 4 + 1 + 2 + 3 + 4 +

5:35 Outro
F#|-----------------------------------------------------------------|
C#|-----------------------------------------------------------------|
G#|-------------9-7-4-4-4-4-4-4-457-5-5-5-5-5-5-5-5-----------------|
C#|-7-7-7-7-7-7-------------------------------------7---------------|
  1 + 2 + 3 + 4 + 1 + 2 + 3 + 4 + 1 + 2 + 3 + 4 + 1 + 2 + 3 + 4 +

ⓘ Bass guitar tab for 'Enchanted' by Taylor Swift, a female pop artist from Pennsylvania, USA. Taylor Swift was born in 1989. Taylor Swift is known for her energetic rock/pop music.

Almost there ...

Sign in to get your own page with links to favourite songs and more. You are just one click away...

Login with Facebook Login with Google